Cifra Club

Aprenda

Margerine

Os Simpsons

Cifra: Principal (violão e guitarra)
tom: F
Intro:

E|--------------------------------------------------------|
B|--------------------------------------------------------|
G|------------------------5-5-5-5-5-5---------------------|
D|-3-3-3-3-3-3-3-3-3-3-3--5-5-5-5-5-5--7-7-7-7-7-7--7-7-7-|
A|-3-3-3-3-3-3-3-3-3-3-3--3-3-3-3-3-3--7-7-7-7-7-7--7-7-7-|
E|-1-1-1-1-1-1-1-1-1-1-1---------------5-5-5-5-5-5--5-5-5-|

Verso:

E|----------------------------------------------------|
B|----------------------------------------------------|
G|--------------5-5-5-5-5-5---------------------------|
D|-3-3-3-3-3-3--5-5-5-5-5-5--7-7-7-7-7-7--8-8-8-8-8-8-|
A|-3-3-3-3-3-3--3-3-3-3-3-3--7-7-7-7-7-7--8-8-8-8-8-8-|
E|-1-1-1-1-1-1---------------5-5-5-5-5-5--6-6-6-6-6-6-|

Pré-Refrão:

E|------------------------------------------------------------|
B|------------------------------------------------------------|
G|-7-7-7-7-7-7--10-10-10-10-10-10---------------3-3-3-3-3-3-3-|
D|-7-7-7-7-7-7--10-10-10-10-10-10--7-7-7-7-7-7--3-3-3-3-3-3-3-| (2x)
A|-5-5-5-5-5-5--8--8--8--8--8--8---7-7-7-7-7-7--1-1-1-1-1-1-1-|
E|---------------------------------5-5-5-5-5-5----------------|

Refrão:

E|--------------------------|      E|-------|
B|--------------------------|      B|-------|
G|--------------------------|      G|-------|
D|-3-3-3-3-3-3--7-7-7-8-8-8-| (4x) D|-3-3-3-|
A|-3-3-3-3-3-3--7-7-7-8-8-8-|      A|-3-3-3-|
E|-1-1-1-1-1-1--5-5-5-6-6-6-|      E|-1-1-1-|

(Verso 1)(Verso 2x):
Spread yellow gunk on my pancake heart,
Country churned girl in my grocery cart.
I paid for her dreams, she taught me to cry,
Like watery knives, like rain from my eyes.

(Pré-Refrão):
I can't believe you're not mine,
I can't believe you're not mine.

(Refrão):
Margerine. Margerine. Margerine.
MARGERINE. MARGERINE.

(Pré-Refrão):
I can't believe you're not mine,
I can't believe you're not mine.
Margerine

(Repete a Introdução)

(Verso 2)(Verso 1x):
Spread yellow gunk on my pancake heart,
Country churned girl in my grocery cart.

(Pré-Refrão):
I can't believe you're not mine,
I can't believe you're not mine.

(Refrão):
Margerine. Margerine. Margerine.
MARGERINE. MARGERINE.
Colaboração e revisão:
  • Raul Horta
6.575 exibições
    • ½ Tom
    • A
    • Bb
    • B
    • C
    • Db
    • D
    • Eb
    • E
    • F
    • F#
    • G
    • Ab
  • Adicionar à lista

    0 comentários

    Ver todos os comentários

    Conseguiu tocar?

    9 Tocaram 0 Ainda não

    Grave um vídeo tocando Margerine e nos envie!

    00:00 / 00:00
    outros vídeos desta música
    repetir qualidade Automático
    Outros vídeos desta música
    00:00 / 00:00
    Automático

    Cifra Club Pro

    Aproveite o Cifra Club com benefícios exclusivos e sem anúncios
    Cifra Club Pro
    Aproveite o Cifra Club com benefícios exclusivos e sem anúncios
    OK