Cifra Club

Everybody

Sister Hazel

Cifra: Principal (violão e guitarra)
Selo Cifra Club: esta cifra foi revisada para atender aos critérios oficiais da nossa Equipe de Qualidade.
tom: C
Intro: C  F  Am  G

           C
You are so sexy my love
           F            
You got me trippin' over my tongue
            Am                    G 
And I can't say what I mean but I mean it when I say
       C                            F                   
That I fell so hard for you that it broke my heart in two
        Am                      
Now I'm wrapped in black and blue
             G 
You know I'm crazy 'bout you 

e|---------------
B|---------------
G|---------------
D|1/3-3P5-3-2-5-3  G
A|---------------
E|---------------


Should I take a 

e|---------------
B|---------------
G|---------------
D|1/3-3P5-3-2-5-3
A|---------------
E|---------------

chance 
          G
Or should I sit and wonder you 

(Chorus) 

C                 F
I wanna tell everybody - everybody
            Am            
That you're so much more 
         G                   
Than they've ever seen before
C                 F              
I wanna tell everybody - everybody
        Am                
If they touched your hand
            G                       C F Am G (2X) 
Then they'd never wanna let you go 

       C             
Like a junkie to a rush
             F                    
I'd trade my momma for your touch
             Am                     
Oh wait that might just be too much
         G                   
Well I'd do anything but that
           C                
You are so tempting my dear
           F                   
You strip away my useless fears
       Am                         
No you don't care that I'm weird
            G
And that's amazing 


e|---------------
B|---------------
G|---------------
D|1/3-3P5-3-2-5-3   G
A|---------------
E|---------------
 
As you walk on 
 
e|---------------
B|---------------
G|---------------
D|1/3-3P5-3-2-5-3
A|---------------
E|---------------
 
by 
   G
Oh I - I sit and wonder you 
 
Chorus 
 
e|--------
B|--------
G|--------
D|2P3-2-0-   
A|-------3 
E|--------
 
Spinning around like 
  G
nobody's watching 
e|--------
B|--------
G|--------
D|2P3-2-0-   
A|-------3 
E|--------
 
Nobody else
    G 
but me
e|--------
B|--------
G|--------
D|2P3-2-0-   
A|-------3 
E|--------
 
So far beyond my
 G 
imagination
e|--------
B|--------
G|--------
D|2P3-2-0-   
A|-------3 
E|--------
                   G
If they could only see 
e|-11-
B|-9--
G|-9--   (8X) PARA CIMA E PARA BAIXO
D|----
A|----
E|----
 
 
e|------------------------------
B|------------------------------
G|------------------2-----------
D|---------5-----3-5-5-3-5-3----
A|-3--3-5-6-6-8-------------5---
E|---------------------------5--
 
e|------------------------------
B|------------------------------
G|------------------------------
D|------------------5-5-3-5-----
A|------------5-3-----------2-3-
E|-5-5-5-3-5-6------------------
 
 
e|---------------------------
B|---------------------------
G|---------------2-----------
D|------5-----3-5-5-3-5-3----
A|-3-5-6-6-8-------------5-3-
E|--------------------------5
 
e|---------------------------
B|---------------------------
G|---------------------------
D|---------------------------
A|-------------5-3-----------
E|--5-5-5-3-5-6---1-1-1-1-1-5

O solo acima acompanha esta parte

You are so sexy my love 
You got me trippin' over my tongue 
And I can't say what I mean but I mean it when I say - 


Chorus
C  F  Am  G
Outros vídeos desta música
2.539 exibições
    • ½ Tom
    • A
    • Bb
    • B
    • C
    • Db
    • D
    • Eb
    • E
    • F
    • F#
    • G
    • Ab
  • Adicionar à lista

Afinação da cifra

Afinador online

    0 comentários

    Ver todos os comentários

    Entre para o Cifra Club PRO

    Tenha acesso a benefícios exclusivos no App e no Site

    • Chega de anúncios

    • Mais recursos no app do Afinador

    • Atendimento Prioritário

    • Aumente seu limite de lista

    • Ajude a produzir mais conteúdo

    Cifra Club Pro

    Aproveite o Cifra Club com benefícios exclusivos e sem anúncios
    Cifra Club Pro
    Aproveite o Cifra Club com benefícios exclusivos e sem anúncios
    OK