Cifra Club

A Noite

Skank

Cifra: Principal
exibições 4.842
Tom: E
intro
E|--------------------|
B|--------------------|
G|--------------------|
D|-0---0---2h4--0---0-|
A|---2---2--------2---|
E|--------------------|

Riff A
E|-------------------------------------|
B|-------------------------------------|
G|-------------------------------------|
D|-2---0-2-4-2-0-2---0---0-2-2h4p2-----|
A|---2-----------------2-----------2-2-|
E|-------------------------------------|

Riff B
E|---------------------------------------|
B|---------------------------------------|
G|---------------------------------------|
D|-0-0-2-4-2h4-2-0-2---0---0-2-2h4p2-----|
A|-----------------------2-----------2-2-|
E|---------------------------------------|

Riff C
E|---------------------|
B|---------------------|
G|---------------------|
D|-----0-4-2-0-0h2-----|
A|---2-------------2---|
E|-0-----------------0-|

Intro: (intro + E5)
 
E5
A noite é a hora perfeita
E5
Nunca se sabe pra quê
E5 (riff A)
Lobos estão à espreita
E5
Todos querendo você

E5
A lua partida num canto
E5
Da paisagem cruel
E5 (riff B)
A cidade é uma longa
E5
Favela de arranha-céus

A5
Ela saiu cedo, caiu na noite
A5                 (riff C)
E ainda não voltou

E5
A noite dissolve a cidade
E5
Em outra alucinação
E5 (riff A)
Mais um grão se desfaz
E5
Na vodca com limão

A5
Ela saiu cedo, caiu na noite
A5
E ainda não voltou
A5
Ela saiu cedo, caiu na noite
A5                (riff C)
E ainda não voltou

Eu sei
Que o futuro já passou
Do passado só restou
A foto ali no bar

E5
Lá em cima rola animação
E5
Alguém mantendo a pulsação
E5
Não importa o que vem depois
E5
Quarto de hotel, baião de dois

C# (Uuuhh Uuuhh)
Acordes para:
    Composição: Samuel Rosa / Chico AmaralColaboração e revisão:
    • Lauro Mandela

    0 comentários

      mostrar mais comentários

      Conseguiu tocar?

      0tocaram0ainda não

      Grave um vídeo tocando A Noite e mande pra gente!

      00:00 / 00:00
      outros vídeos desta música
      repetirqualidadeautomática
      Outro vídeos desta música
        00:00 / 00:00
        automática
        OK