Cifra Club

Acima do Sol

Skank

Tab de baixo: Principal
exibições 26.700
Intro:
G---------------------------------
D---------------------------------
A---------------------------------
E--0-3-5---0-5-3---0-3-5---0-5-3--

Verso:
G----------------------------------------------------
D----------------------------------------------------
A------5-7-5-7-----5-7-5-7------5-7-5-7-----5-7------
E--5-5---------5-5----------3-3---------3-3-----0-3--

G----------------------------------------------------
D----------------------------------------------------
A------5-7-5-7-----5-7-5-7------5-7-5-7-----5-7------
E--5-5---------5-5----------3-3---------3-3-----0-3--
   Uhuhuhuhuhuhuhuhuh!
Composição: Chico Amaral / Samuel RosaColaboração e revisão:
  • Larissa Silva
  • Jansen Grizenti

0 comentários

    mostrar mais comentários

    Conseguiu tocar?

    4tocaram0ainda não

    Grave um vídeo tocando Acima do Sol e mande pra gente!

    00:00 / 00:00
    outros vídeos desta música
    repetirqualidadeautomática
    Outro vídeos desta música
      00:00 / 00:00
      automática
      OK