Cifra Club

De Repente

Skank

Cifra: Principal
exibições 177.372
Tom: G
Riff - Intro:
E|------------------------------------
B|------------------------------------
G|------------------------------------
D|------------------------------------
A|-5--5-5-3--3-3--2---2-2---0---0-0---
E|------------------------------------

Intro: G  C

Primeira Parte:
G
  Olhei, não via ela há muito tempo
            C
Ah! Quanto tempo faz?

Nem me lembro mais, então
G
  Pensei na vida que algum tempo
       C
Eu deixei pra trás

Não me deixa em paz, se não
G
  Por quê? Ainda aquele tempo
       C
Dentro entra e sai, volta vem e vai
           D
Sem acabar
                C
Mas o tempo passou
D9(11)             C
       O tempo passou...
   (Riff - Intro)
E agora eu sei o que eu passei

    G
Cantei

Contei, estrelas mil no firmamento
 C
Vão brilhar, depois apagar irão
G
  Chorei, as lágrimas correndo como
 C
Nos cristais , fogo dos vitrais pagãos

Am
   Não a solidão, amar e desejar a vida
  Bm
Que não deu as mãos

Mas vai dentro da gente
 Am
Como explosão no ar

Como furacão no mar
      Bm
De repente é você voltou assim
       Am7
Eu preciso mais, eu preciso
      Bm11
Uh hu uh...
       Am7
Eu preciso mais, eu preciso
      Bm11
Uh hu uh...
Riff:
E|------------------------------------
B|------------------------------------
G|------------------------------------
D|------------------------------------
A|-5--5-5-3--3-3--2---2-2---0---0-0---
E|------------------------------------

G
  Olhei, não via ela há muito tempo
            C
Ah! Quanto tempo faz?

Nem me lembro mais, então
Solo:
E|--------------------------------------
B|--------------------------------------
G|-0--0----0---0---0---0-0-0-0---0-2----
D|-0--0----0---0---0---0-0-0-2---0-0----
A|--------------------------------------
E|-3-----3---3---3---3---3-----3--------

E|--------------------------------------
B|--------------------------------------
G|---2h4---4---4--0-2---2h4----4--4---4-
D|---0-----0---0--0-0---0------0--0---0-
A|-3----3---3--------3------3---3---3---
E|--------------------------------------

Por quê? Ainda aquele tempo
       C
Dentro entra e sai, volta vem e vai
           D
Sem acabar

Am
   Não a solidão, amar e desejar a vida
  Bm
Que não dá as mãos

Mas vai dentro da gente
 Am
Como explosão no ar

Como furacão no mar
      Bm
De repente é

Você voltou assim
       Am7
Eu preciso mais, eu preciso
      Bm11
Uh hu uh...
Am7
Eu preciso mais, eu preciso
      Bm11
Uh hu uh...
       Am7
Eu preciso mais, eu preciso
      Bm11
Uh hu uh...
Riff:
E|------------------------------------
B|------------------------------------
G|------------------------------------
D|------------------------------------
A|-5--5-5-3--3-3--2---2-2---0---0-0---
E|------------------------------------

G
  Olhei, não via ela há muito tempo
            C
Ah! Quanto tempo faz?

Nem me lembro mais
Solo Final:
E|----------------------------------------
B|----------------------------------------
G|-0--0----0---0---0---0-0-0-0---0-2------
D|-0--0----0---0---0---0-0-0-2---0-0------
A|----------------------------------------
E|-3-----3---3---3---3---3-----3----------

E|----------------------------------------
B|----------------------------------------
G|---2h4---4---4--0-2--4-4--2-2--0-0--0-0-
D|---0-----0---0--0-0--0-0--0-0--0-0--0-2-
A|-3----3---3----------3----3----3--------
E|----------------------------------------

E|----------------------------------------
B|----------------------------------------
G|-0-2-4-2-0-0---0------------------------
D|-0-0-0-0-0-0h2-0------------------------
A|-----3-3-3-3----------------------------
E|---------------3------------------------

Ritmo:
E|---x------x-----x------x------
B|---x------x-----x------x------
G|---x------x-----x------x------
D|------------------------------
A|------------------------------
E|-x-----x------x------x--------

E|------------------------------
B|---x------x-----x------x------
G|---x------x-----x------x------
D|---x------x-----x------x------
A|------------------------------
E|-x-----x------x------x--------

Ritmo dobrado - variação:
E|---xx-----xx----xx-----xx-----
B|---xx-----xx----xx-----xx-----
G|---xx-----xx----xx-----xx-----
D|------------------------------
A|------------------------------
E|-x-----x------x------x--------

E|------------------------------
B|---xx-----xx----xx-----xx-----
G|---xx-----xx----xx-----xx-----
D|---xx-----xx----xx-----xx-----
A|------------------------------
E|-x-----x------x------x--------
Acordes para:

    0 comentários

      mostrar mais comentários

      Conseguiu tocar?

      29tocaram0ainda não

      Grave um vídeo tocando De Repente e mande pra gente!

      00:00 / 00:00
      outros vídeos desta música
      repetirqualidadeautomática
      Outro vídeos desta música
        00:00 / 00:00
        automática
        Capítulos
        • Início
        • Tocando a música
        • Acordes Introdução e Primeira Parte
        • Tocando Introdução e Primeira Parte
        • Ensinando Frase da Introdução
        • Ensinando ritmo da música
        • Acordes da Segunda Parte
        • Tocando Segunda Parte - Solo
        • Ensinando Solo
        • Tocando trecho Repetição - Final
        • Ensinando Solo Final (Parte 1 e 2)
        • Ensinando Solo Final (Parte 3)
        • Encerramento
        OK