Cifra Club

De Repente

Skank

Tab de baixo: Principal
exibições 1.676
Intro:
G|-----------------------------
D|-----------------------------
A|-5--5-5-3--3-3-2--2-2-0-0-0--
E|-----------------------------

Intro + ''Olhei...''
G|-------------------------------------------------------------------------
D|---------------------------------------5-7-5-7-5-7-5-0--5-7-5-7-5-7-5----
A|---5-7-5-7-5-7-5-0--5-7-5-7-5-7-5-0--3----------------3--------------0---   (4x)
E|-3----------------3---------------------------------------------------3--

''Sem acabar...''
G|------------------------------------------------------
D|------------------------------------------------------
A|-5-5--5-5-5--5--5-5--5-5-5--5--3-3--3-3-3--3--3-3--3--  (2x)
E|------------------------------------------------------

G|-----------------------------
D|-----------------------------
A|-5--5-5-3--3-3-2--2-2-0-0-0--
E|-----------------------------

''Cantei...''
G|-------------------------------------------------------------------------
D|---------------------------------------5-7-5-7-5-7-5-0--5-7-5-7-5-7-5----
A|---5-7-5-7-5-7-5-0--5-7-5-7-5-7-5-0--3----------------3--------------0---  (2x)
E|-3----------------3---------------------------------------------------3--

''Não a solidão...''
G|-----------------------------------------------------
D|-----------------------------------------------------
A|--------------------------2-2--2-2-2--2-2--2-2-2--2--  (4x)
E|-5-5--5-5-5--5-5--5-5-5--5---------------------------

G|-----------------------------
D|-----------------------------
A|-5--5-5-3--3-3-2--2-2-0-0-0--
E|-----------------------------

''Olhei,não via ela há muito tempo...''
G|-------------------------------------------------------------------------
D|---------------------------------------5-7-5-7-5-7-5-0--5-7-5-7-5-7-5----
A|---5-7-5-7-5-7-5-0--5-7-5-7-5-7-5-0--3----------------3--------------0---   (2x)
E|-3----------------3---------------------------------------------------3--

''Não a solidão, amar e desejar a vida...''
G|-----------------------------------------------------
D|-----------------------------------------------------
A|--------------------------2-2--2-2-2--2-2--2-2-2--2--  (5x)
E|-5-5--5-5-5--5-5--5-5-5--5---------------------------

G|-----------------------------
D|-----------------------------
A|-5--5-5-3--3-3-2--2-2-0-0-0--
E|-----------------------------

''Olhei, não via ela há muito tempo...''
G|-------------------------------------------------------------------------
D|---------------------------------------5-7-5-7-5-7-5-0--5-7-5-7-5-7-5----
A|---5-7-5-7-5-7-5-0--5-7-5-7-5-7-5-0--3----------------3--------------0---   (2x)
E|-3----------------3---------------------------------------------------3--
Composição: Nando Reis / Samuel RosaColaboração e revisão:
  • Bruno Bernatat

0 comentários

    mostrar mais comentários

    Conseguiu tocar?

    4tocaram0ainda não

    Grave um vídeo tocando De Repente e mande pra gente!

    00:00 / 00:00
    outros vídeos desta música
    repetirqualidadeautomática
    Outro vídeos desta música
      00:00 / 00:00
      automática
      OK