Cifra Club

Esquecimento

Skank

Tab de baixo: Principal
exibições 3.052
G|-------------------------------------|
D|-------------------------------------|
A|--4--24--22--22-----2-2--4--24-------|
E|----4---4---4------4-4-----4---------|

Que seja no Japão...

G|----------------------6----64---4--13-11-8---|
D|------2----------------6------46-------------|
A|--2-4----2/4-2---7h2----4--------------------|
E|---------------------------------------------|

G|-------------------------------------|
D|-------------------------------------|
A|--4--24--22--22-----2-2--4--24-------|
E|----4---4---4------4-4-----4---------|
Colaboração e revisão:
  • Gedeon

0 comentários

    mostrar mais comentários

    Conseguiu tocar?

    0tocaram0ainda não

    Grave um vídeo tocando Esquecimento e mande pra gente!

    00:00 / 00:00
    outros vídeos desta música
    repetirqualidadeautomática
    Outro vídeos desta música
      00:00 / 00:00
      automática
      OK