Cifra Club

Resposta

Skank

Tab de baixo: Principal
exibições 3.014
(Trecho sem baixo)
Bem mais que o tempo que nós perdemos
ficou pra trás também o que nos juntou
Ainda lembro, que eu estava lendo
Só pra saber o que você achou
dos versos que eu fiz e ainda ...

               G#  G#4  G#  G#9  C#9  G#  G#4  G#  G#9  C#9
G|---------------------------------------
D|---------------------------------------
A|---------------------------------------
E|-------------4----------------------4--
... espero resposta    

G|--------------------------------
D|--------------------------------
A|---------4----------------4-----
E|--4--4-4----0-0----4--4-4---0-0-
    Desfaz o vento ...

G|-------------10-9-9-----------6-------------
D|----------10--------10\-----6---8-6-6-------
A|-----8-11-----------------4-----------8-6---
E|--------------------------------------------
   Os versos seus ...

G|----------10-9-9-----------6-6--------
D|-------10--------10\-----6--------11\-
A|--8-11-----------------4-------11-----
E|--------------------------------------

Refrão
G|------------------------------------------------------------------
D|-----------------------------------------------------3-4----------
A|---------------------3-4-4-4-4-4h6-----------3-4-4-4-----6-4-3----
E|-----------4-4h6-6-6---------------4-4h6-6-6-------------------6--
... que os aceite ...

G|-------------------------------
D|-------------------------------
A|-------3-4-6/8-6-4-------3-4-4-
E|-4-4-6-------------4-4-6-------

O restante da música é tocado utilizando as mesmas linhas
Composição: Nando Reis / Samuel RosaColaboração e revisão:
  • Fernando Fujihara

0 comentários

    mostrar mais comentários

    Conseguiu tocar?

    1tocaram0ainda não

    Grave um vídeo tocando Resposta e mande pra gente!

    00:00 / 00:00
    outros vídeos desta música
    repetirqualidadeautomática
    Outro vídeos desta música
      00:00 / 00:00
      automática
      OK