Cifra Club

Vou Deixar

Skank

Cifra: Principal
exibições 1.474.763
Tom: D
Intro:

E|-0-0--0-0--0-0--0-0---------------|
B|-5-5--3-3--2-2--3-3---------------|
G|----------------------------------| 
D|----------------------------------|  (4x)
A|----------------------------------|
E|----------------------------------|

       D   F#         G
Vou deixar    a  vida   me  levar
Gm                 D  F#          G       Gm                D Bm
Pra onde ela quiser   estou no meu lugar  você já sabe onde é-é

G           A             D  Bm
não conte o tempo por nós do-ois
  G           A             D       Bm    G            A
Pois a qualquer hora posso estar de volta depois que a noite terminar

        D  F#           G
Vou deixar    a  vida   me  levar
Gm                 D  F#           G      Gm                  D Bm
Pra onde ela quiser    seguir a direção   de uma estrela qualque-ér

G         A           D   Bm
Não quero hora pra voltar não
G        A         D      Bm
Conheço bem a solidão me solta
G                     A
E deixa a sorte me buscar

Em7                     A
 Eu já estou na sua estrada
Em7                   A     A4
 Sozinho não enxergo nada

Em7          F#m
 Mas vou ficar aqui
 G               F#m
Até que o dia amanheça
Em7            F#m
 Vou me esquecer de mim
     A
E você se puder não me esqueça

        D  F#       G
Vou deixar    o coração bater
Gm                  D  F#         G
Na madrugada sem fim    deixar o sol te ver

Gm               D   Bm
Ajoelhada por mim sim
 G         A           D   Bm
Não tenho hora pra voltar não
G       A            D     Bm
Eu agradeço tanto a sua escolta
G                      A
Mas deixa a noite terminar

Em7                     A
 Eu já estou na sua estrada
Em7                   A     A4
 Sozinho não enxergo nada

Em7         F#m
 Mas vou ficar aqui
 G               F#m
Até que o dia amanheça
Em            F#m
 Vou me esquecer de mim
     A
E você se puder não me esqueça

(solo) (D F# G Gm) 2x

E|---------------------------------------------------|
B|---------------------------------------------------|
G|-7-9-7-9b11r9b11~--11r9-9--9b11-9--7~--------------|
D|---------------------------------------8~-8b9r8--7~|
A|---------------------------------------------------|
E|---------------------------------------------------|

E|-------------------------------------------------------|
B|------------------------------------------3--------0---|
G|-7/11~--11r9-9--9b11-9--7~------------------4---0----2-|
D|----------------------------8~-8b9r8--7~---------------|
A|-------------------------------------------------------|
E|-------------------------------------------------------|

E|--------------------------------|
B|----3--------0------------------|
G|-2----4---0----2----------------| (3x)
D|--------------------------------|
A|--------------------------------|
E|--------------------------------|

D   Bm    G         A          D   Bm
Não não  não quero hora pra voltar não
G        A         D      Bm
Conheço bem a solidão me solta
G                     A
E deixa a sorte me buscar
D   Bm   G         A          D   Bm
Não não não tenho hora pra voltar não
G       A            D     Bm
Eu agradeço tanto a sua escolta
G                      A
Mas deixa a noite terminar
Final: (D Bm G A)
Acordes para:

    0 comentários

      mostrar mais comentários

      Conseguiu tocar?

      236tocaram1ainda não

      Grave um vídeo tocando Vou Deixar e mande pra gente!

      00:00 / 00:00
      outros vídeos desta música
      repetirqualidadeautomática
      Outro vídeos desta música
        00:00 / 00:00
        automática
        Capítulos
        • Início
        • Apresentando aula
        • Acordes Intro/Refrão
        • Tocando Intro/ Refrão
        • Ritmo Intro/Refrão
        • Acordes Segunda Parte
        • Tocando Segunda Parte
        • Ritmo Segunda Parte
        • Acordes terceira Parte
        • Tocando terceira Parte
        • Passagem
        • Ritmo Passagem
        • Solo Introdutório
        • Encerramento
        OK