Cifra Club

I Remember You

Skid Row

Cifra: Principal
exibições 460.053
Tom: G
Intro / Versos:
        G                C9
E|-3-3-3--3---------|-0-0-0--0---------|
B|-3-3-3------------|-3-3-3----0h3p0---|
G|-0-0-0------------|-0-0-0----------0-|
D|-0-0-0--------0h2-|-2-2-2------------|
A|-2-2-2----0h2-----|-3-3-3------------|
E|-3-3-3------------|------------------|


G
 Woke up to soothing sound of
C9
 Pouring rain
G
 The wind would whisper and I'd
C9
 think of you
G
 And all the tears you cried that
C9
 Called my name
D
 And when you needed me
C
 I came through

G
I paint a picture of the
C9
Days gone by
G
When love went blind and you would
C9
Make me see
G                      C9
I'd stare a lifetime into your eyes
D
So that I knew that you were
C
There for me
D
Time after time
C
you were there for me

Refrão:
G
 Remember yesterday
D
 Walking hand in hand
Em                         C       D     G
 Love letters in the sand,   I remember  you

Through the sleepless nights
     D
Through every endless day
Em                     C     D      (G   C9)
 I'd wanna hear you say I remember you


Verso 2:
G                              C9
 We spend the summer with the top rolled down
G                        C9
Wished ever after would be like this
G                               C9
 You said: I love you, babe - without a sound
D                                C
 I said I'd give my life for just one kiss
D                           C
 I'd live for your smile, and die for your kiss

Refrão:
G
 Remember yesterday
D
 Walking hand in hand
Em                         C        D      G
 Love letters in the sand,   I remember  you

Through the sleepless nights
     D
Through every endless day
Em                     C     D        G  C9
 I'd wanna hear you say: I remember you

Ponte:
Am
 We've had our share of hard times
Em
  But that's the price we paid
Am
 And through it all, we kept the
D
promise that we made...

D
 I swear you'll never be lonely


[Solo]  G  C9
        G  C9
        G  C9
        D  C
        D  C
        G  C9
        G  C9

E|----------------------------------------------------|
B|-------------------------5-7-8~-8p7-8---------------|
G|-------------------4-5-7----------------------------|
D|-----------2-4-5-7----------------------------------|
A|-----2-3-5------------------------------------------|
E|-3-5------------------------------------------------|

E|----------------------------------------------------|
B|-7h8-----------------------------7(h)---------------|
G|-----7h8------------------------------7/------------|
D|---------10-7-10-7----7-9-7-------------------------|
A|-------------------10-------10----------------------|
E|----------------------------------------------------|

E|-------------------10s15-15--12-10------------------|
B|--------------8s10-----------------12-10-8~---------|
G|-----------7----------------------------------------|
D|----7-9-10------------------------------------------|
A|-10-------------------------------------------------|
E|----------------------------------------------------|

E|-----------------------17(h)------/19~-17h19p17-19--|
B|-10b-8h10-8-10-8------------------------------------|
G|-----------------9-7-9------------------------------|
D|----------------------------------------------------|
A|----------------------------------------------------|
E|------------------------------/---------------------|

E|-/7--------7----------------------------------------|
B|----7-8-10---10-8-7-8-------------------------------|
G|----------------------9-7---------------------------|
D|-----------------------------7-9-10----7-9-10-9-----|
A|--------------------------10--------10-----------10~|
E|----------------------------------------------------|

E|----------------------------------------------------|
B|-8~-5s7------------------------/8~------------------|
G|--------7s9------------------------/7~-4(h)---------|
D|------------9/-7h9-9-7-5-7-9-5~-------------5~------|
A|----------------------------------------------------|
E|----------------------------------------------------|

G                       C9
 Woke up to soothing sound of pouring rain
G                       C9
 Washed away a dream of you
G                          C9
 But nothing else could ever take you away
D                         C
 'Cause you'll always be my dream come true
D                         C
 Oh, my darling, I love you

G
 Remember yesterday
D
 Walking hand in hand
Em                         C        D      G
 Love letters in the sand,   I remember  you

Through the sleepless nights
     D
Through every endless day
Em                     C     D        G  C9
 II'd wanna hear you say: I remember you


 ( G  C9 )


         G                        C9             G                                 G
E|----------3---------------0---------------3---------------3/5-3--------------3----|
B|------------3---------3-----3---------------3---------3---3/5-3--1/3-1-------2----|
G|------0-------0---------0-----0-------0-------0---------0--------0/0-0-------0----|
D|--------0-------0---2-----------2-------0-------0---2------------2/4-2-------0----|
A|----2-------------3-----------------2-------------3--------------------------2----|
E|--3-------------------------------3------------------------------------------3----|
           C9
E|--0 |o----
B|--3 |---3-
G|--0 |o----
D|--2 |--1--
A|--3 |---2-
E|--X |X----

0 comentários

    mostrar mais comentários

    Conseguiu tocar?

    72tocaram1ainda não

    Grave um vídeo tocando I Remember You e mande pra gente!

    00:00 / 00:00
    outros vídeos desta música
    repetirqualidadeautomática
    Outro vídeos desta música
      00:00 / 00:00
      automática
      OK