Cifra Club

Believe

Skillet

Cifra: Principal (violão e guitarra)
Selo Cifra Club: esta cifra foi revisada para atender aos critérios oficiais da nossa Equipe de Qualidade.
tom: C
(intro 2x - 0:00)

E|-------0------------------------------------------------------------------|
B|--------------3-3------1----0---------------------------------------------|
G|---------------------------------------2--------2-2------4/5/4------------|
D|---2-----------------2-------------3--------3----------3------------------|
A|-0---0----0-2------0------0-----------------------------------------------|
E|---------------------------------1---1----1----------1--------------------|

E|-------0------------------------------------------------------------------|
B|--------------3-3------1----0---------------------------------------------|
G|---------------------------------------2--------2-2------4~---------------|
D|---2-----------------2-------------3--------3----------3------------------|
A|-0---0----0-2------0------0-----------------------------------------------|
E|---------------------------------1---1----1----------1--------------------|

(pre-chorus - 0:21)
E|--------0--------------0---------------------------------------------------|
B|--------------------------------------1---------------3--------------------|
G|---2-------2-------0--------0----------------------------------------------|
D|----------------------------------3--------3------5--------5---------------|
A|-0---0----0------3---3----3------------------------------------------------|
E|--------------------------------1---1----1------3---3----3-----------------|

(0:28 - Palm-muted)
E|---------------------------------------------------------------------------|
B|---------------------------------------------------------------------------|
G|---------------------------------------------------------------------------|
D|---------------------------------------------------------------------------|
A|-3-3-3-3-3-3-3-3-3-3-3-3-3-3-3-3-5-5-5-5-5-5-5-5---------------------------|
E|-1-1-1-1-1-1-1-1-1-1-1-1-1-1-1-1-3-3-3-3-3-3-3-3---------------------------|
   . . . . . . . . . . . . . . . . . . . . . . . .

(chorus 2x - 0:35)
E|---------------------------------------------------------------------------|
B|---------------------------------------------------------------------------|
G|---------------------------------------------------------------------------|
D|-22222222----------55555555------------------------------------------------|
A|-00000000-33333333-33333333-55555555-33333333-77777777-5555555555555555----|
E|----------11111111----------33333333-11111111-55555555-3333333333333333----|

(1:01)
E|--------------------------------------------------------------------------|
B|--------------------------------------------------------------------------|
G|------------------4-4-4---------------------------------------------------|
D|-7-7-7-7-7-7-7-7--x-x-x---------------------------------------------------|
A|-x-x-x-x-x-x-x-x--2-2-2---------------------------------------------------|
E|-5-5-5-5-5-5-5-5----------------------------------------------------------|

(1:08)
E|-12~-12b 12~--10 7 8~-----------------------------------------------------|
B|--------------------------------------------------------------------------|
G|--------------------------------------------------------------------------|
D|--------------------------------------------------------------------------|
A|--------------------------------------------------------------------------|
E|--------------------------------------------------------------------------|

(intro 2x)
(pre-chorus 1x)
(chorus 2x)

(2:10)
E|--------------------------------------------------------------------------|
B|--------------------------------------------------------------------------|
G|------------------4-4-4-4-4-4-4-4-----------------------------------------|
D|-7-7-7-7-7-7-7-7--x-x-x-x-x-x-x-x-----------------------------------------|
A|-x-x-x-x-x-x-x-x--2-2-2-2-2-2-2-2-----------------------------------------|
E|-5-5-5-5-5-5-5-5----------------------------------------------------------|

(instrumental - 2:18) (Just wanted to tab this part out.)
E|--------------------------------------------------------------------------|
B|--------------------------------------------------------------------------|
G|-10-10-10-15-14--10-10-10-15-14--10-(b9)---10-------------------------------|
D|-x--x--x--x--x---x--x--x--x--x---x--x----x--------------------------------|
A|-8--8--8--13-12--8--8--8--13-12--8--7----8--------------------------------|
E|--------------------------------------------------------------------------|
                                           ^second time end with.

(solo - 2:25)
E|-12/15-14--13p12---------------------------------------------1010101010101010|
B|-----------------13p12-----1212121212121212-1313131313131313-----------------|
G|-----------------------10----------------------------------------------------|
D|-----------------------------------------------------------------------------|
A|-----------------------------------------------------------------------------|
E|-----------------------------------------------------------------------------|

E|-1515151515151515 17~-----------------------------------------------------|
B|--------------------------------------------------------------------------|
G|--------------------------------------------------------------------------|
D|--------------------------------------------------------------------------|
A|--------------------------------------------------------------------------|
E|--------------------------------------------------------------------------|

(post-solo)
E|-------0-------------0----------------------------------------------------|
B|-----------------------------------1-------------3-------------1----------|
G|--------------------------------------------------------------------------|
D|---2-------2-----0-------0-----3-------3-----5-------5-----3-------3------|
A|-0---0---0-----3---3---3--------------------------------------------------|
E|-----------------------------1---1---1-----3---3----3----1---1---1--------|

E|--------------------------------------------------------------------------|
B|--------1---------------3-------------------------------------------------|
G|--------------------------------------------------------------------------|
D|---3---------3-----5--------5---------------------------------------------|
A|--------------------------------------------------------------------------|
E|-1---1-----1-----3---3----3-----------------------------------------------|

(chorus 2x)

(3:10)
E|--------------------------------------------------------------------------|
B|--------------------------------------------------------------------------|
G|--------------------------------------------------------------------------|
D|-5--7--(b9)-12--15--14--15--------------------------------------------------|
A|-x--x--x--x---x---x---x---------------------------------------------------|
E|-3--5--7--10--13--12--13--------------------------------------------------|

E|---------------------------------------------------------------------------|
B|---------------------------------------------------------------------------|
G|------------------------------------------------------------------5--------|
D|-2-2-2-2-2-2-2-2-----------------2-2-2-2-2-2-2-2-4-4-4-4-4-4-4-4--x--------|
A|-0-0-0-0-0-0-0-0-6-6-6-6-6-6-6-6-0-0-0-0-0-0-0-0-2-2-2-2-2-2-2-2--3--------|
E|-----------------4-4-4-4-4-4-4-4-------------------------------------------|

(play however many times needed)
E|---------------------------------------------------------------------------|
B|-13-12---------------------------------------------------------------------|
G|-------14------------------------------------------------------------------|
D|---------------------------------------------------------------------------|
A|---------------------------------------------------------------------------|
E|---------------------------------------------------------------------------|
Outros vídeos desta música
    23.067 exibições
    • Simplificar cifra
      • ½ Tom
      • A
      • Bb
      • B
      • C
      • Db
      • D
      • Eb
      • E
      • F
      • F#
      • G
      • Ab
    • Adicionar à lista

    Afinação da cifra

    Afinador online

      0 comentários

      Ver todos os comentários

      Entre para o Cifra Club PRO

      Tenha acesso a benefícios exclusivos no App e no Site

      • Chega de anúncios

      • Badges exclusivas

      • Mais recursos no app do Afinador

      • Atendimento Prioritário

      • Aumente seu limite de lista

      • Ajude a produzir mais conteúdo

      Cifra Club Pro

      Aproveite o Cifra Club com benefícios exclusivos e sem anúncios
      Cifra Club Pro
      Aproveite o Cifra Club com benefícios exclusivos e sem anúncios
      Ops (: Contenido disponible sólo en portugués.
      OK