Enviar cifraEntrar

Hero

Skillet

Cifra: Principal
exibições 93.371
Tom: F#
(intro)


E|------------------------------4-4-----------------------------------------------------|
B|----4-4-6-6-7-7-6-6------------7-7-6-6------------------------------------------------|
G|------------------------6-6-----------------------------------------------------------|   x6
D|--------------------------------------------------------------------------------------|
A|--------------------------------------------------------------------------------------|
E|--------------------------------------------------------------------------------------|


E|-----7----7---7-----------------------------------------------------------------------|
B|--------------------------------------------------------------------------------------|
G|-------8----8-------------------------------------------------------------------------|
D|--------------------------------------------------------------------------------------|
A|--------------------------------------------------------------------------------------|
E|--------------------------------------------------------------------------------------|


(Verse 1)
Ebm
I'm just a step away
F#           C#
I'm a just a breath away
Ebm
Losing my faith today
B               C#
falling off the edge today
Ebm
I am just a man
F#       C#
not superhuman
Ebm
I'm not superhuman
B               C#
someone save me from the hate

(Pre-chorus)
Abm                    B
It's just another war,
Ebm
just another family torn falling from my faith today
Abm                         B
just a step from the edge,
Ebm
just another day in the world we live

(Chorus)
Ebm                F#       C#
I need a hero, to save me now
Ebm            B       C#
I need a hero save me now
Ebm                F#       C#
I need a hero, to save my life
Ebm                   B       C#
If a hero'll save me just in time

(Verse 2)
Ebm
I gotta fight today,
F#        C#
to live another day,
Ebm
Speaking my mind today
B               C#
my voice will be heard today
Ebm
I've gotta make a stand,
F#        C#
but I am just a man
Ebm
I'm not superhuman
B                C#
my voice will be heard today

(Pre-chorus)
Abm                    B
It's just another war,
Ebm
just another family torn my voice will be heard today
Abm                     B
It's just another kill,
Ebm
the countdown begins to destroy ourselves

(Chorus)
Ebm                F#       C#
I need a hero, to save me now
Ebm             B       C#
I need a hero, just in time
Ebm                       Ebm
Save me just in time...  Save me just in time...

(Bridge)
Abm                           B
Who's gonna fight for what's right?
B                      Ebm
Who's gonna help us survive?
Ebm
We're in the fight of our lives
C#
And we're not ready to die
Abm                        B
Who's gonna fight for the weak?
B                    Ebm
Who's gonna make 'em believe?
Ebm                         C#
I've got a hero I've got a hero
C#
Livin' in me
Abm                        B
I'm gonna fight for whats right
B                     Ebm                      C#
today I'm speaking my mind and if it kills me tonight
C#
I will be ready to die
B
A hero's not afraid to give his life
C#                      Dm
A hero's gonna save me just in time...

( Ebm  F#  C# )


E|------------------------------4-4-------------------|
B|----4-4-6-6-7-7-6-6------------7-7-6-6--------------|
G|------------------------6-6-------------------------|       x2
D|----------------------------------------------------|
A|----------------------------------------------------|
E|----------------------------------------------------|


(Chorus)
Ebm
I need a hero,
Ebm                           F#
Who's gonna fight for what's right?
            C#          Ebm
Who's gonna help us survive?
Ebm
I need a hero,
Ebm                        F#
Who's gonna fight for the weak?
            C#       Ebm
Who's gonna make em believe?
Ebm
I need a hero,
Ebm              Ebm       F#     C#
I need a hero!
Ebm                     B       C#      Ebm
A hero's gonna save me just in time

Obs: Na música original, os acordes são dropados 1/2 tom abaixo. (Eb, Ab, Db, Gb, Bb, Eb)
  • 1
  • 2
  • 3
  • 4
  • 5
  • 6
  • 7
  • 8
  • 9
  • 10
  • 11
  • 12
    Acordes para:
      Composição: John Cooper / John L. Cooper / Korey CooperColaboração e revisão:
      • vblack97
      • Rebeca
      • Edu Leocádio

      0 comentários

        mostrar mais comentários

        Conseguiu tocar?

        29tocaram0ainda não

        Grave um vídeo tocando Hero e mande pra gente!

        00:00 / 00:00
        outros vídeos desta música
        repetirqualidadeautomática
        • automática
        Outro vídeos desta música
          00:00 / 00:00
          automática
          • automática
          Acordes para:violão e guitarra
          dificuldadeexibiçõescontribuições
          1 versão de Guitar Proformatodownloadscontribuição
          fecharplay/pause subir/descer velocidade
            acordes
            fechar
            OK
            Feedback