Cifra Club

Monster

Skillet

Cifra: Principal (violão e guitarra)
tom: A
[Intro] G5  D5  Bb5  D5  G5  D5
[Passagem]

   G5    D5            Bb5   D5
E|------------------------------------------|
B|------------------------------------------|
G|------------------------------------------|
D|-5-5-5-0---X-0-------8-8-8-0---X-0--------|
A|-5-5-5-0---X-0-------8-8-8-0---X-0--------|
E|-5-5-5-0---X-0-------8-8-8-0---X-0--------|

   G5    D5           (Passagem)
E|------------------------------------------|
B|------------------------------------------|
G|------------------------------------------|
D|-5-5-5-0---X-0-------7-10\-5-3------------|
A|-5-5-5-0---X-0-------7-10\-5-3------------|
E|-5-5-5-0---X-0-------7-10\-5-3------------|

[Primeira Parte]

   G5    D5            Bb5   D5
E|------------------------------------------|
B|------------------------------------------|
G|------------------------------------------|
D|-5-5-5-0---X-0-------8-8-8-0---X-0--------|
A|-5-5-5-0---X-0-------8-8-8-0---X-0--------|
E|-5-5-5-0---X-0-------8-8-8-0---X-0--------|

   G5    D5
E|------------------------------------------|
B|------------------------------------------|
G|------------------------------------------|
D|-5-5-5-0---X-0----------------------------|
A|-5-5-5-0---X-0----------------------------|
E|-5-5-5-0---X-0----------------------------|

   Bb5             C5
E|------------------------------------------|
B|------------------------------------------|
G|------------------------------------------|
D|-8-8-8-8-8-8-8-8-10-10-10-10-10-10-10-10--|
A|-8-8-8-8-8-8-8-8-10-10-10-10-10-10-10-10--|
E|-8-8-8-8-8-8-8-8-10-10-10-10-10-10-10-10--|

The secret side of me
I never let you see
I keep it caged
But I can't control it
So stay away from me
The beast is ugly
I feel the rage and 
I just can't hold it

It's scratchin on the walls
In the closet, in the halls
It comes awake and I can't control it
Hidin under the bed
In my body, in my head
Why won't somebody come and 
 Bb5                C5
Save me from this? Make it end

[Refrão]

   D5              F5
E|------------------------------------------|
B|------------------------------------------|
G|------------------------------------------|
D|-0-0-0-0-0-0-0-0-3-3-3-3-3-3-3-3----------|
A|-0-0-0-0-0-0-0-0-3-3-3-3-3-3-3-3----------|
E|-0-0-0-0-0-0-0-0-3-3-3-3-3-3-3-3----------|

   Bb5            (Passagem)
E|------------------------------------------|
B|------------------------------------------|
G|------------------------------------------|
D|-8-8-8-8-8-8-8-8-7-10\-5-3----------------|
A|-8-8-8-8-8-8-8-8-7-10\-5-3----------------|
E|-8-8-8-8-8-8-8-8-7-10\-5-3----------------|

D5                       F5
   I feel it deep within
                           Bb5
It's just beneath the skin

I must confess that 
[Passagem]          D5
I feel like a monster
                        F5
I hate what I've become
                           Bb5
The nightmare's just begun

I must confess that 
[Passagem]          D5
I feel like a monster

   F5    Bb5         G5  A5  D5
I,    I feel like a monster
   F5    Bb5         G5  A5 
I,    I feel like a monster

[Segunda Parte]

My secret side I keep
Hid under lock and key
I keep it caged
But I can't control it
'Cause if I let him out
He'll tear me up, break me down
Why won't somebody come and 
 Bb5                C5
Save me from this? Make it end

[Refrão]

D5                       F5
   I feel it deep within
                           Bb5
It's just beneath the skin

I must confess that 
[Passagem]          D5
I feel like a monster
                        F5
I hate what I've become
                           Bb5
The nightmare's just begun

I must confess that 
[Passagem]          D5
I feel like a monster
                      F5
I feel it deep within
                           Bb5
It's just beneath the skin

I must confess that 
[Passagem]          D5
I feel like a monster

   F5    Bb5         G5  A5  D5
I,    I feel like a monster
   F5    Bb5         G5  A5 
I,    I feel like a monster

[Terceira Parte]

G5                       D5
   Its hidin in the dark
                          F5
Its teeth are razor sharp
 
There's no escape for me
    C5
It wants my soul
                  G5
It wants my heart
                          D5
No one can hear me scream
 
Maybe its just a dream
    A5
Or maybe its inside of me
[Passagem]
Stop this monster

[Refrão]

   D5       F5       Bb5      G5  A5
E|------------------------------------------|
B|------------------------------------------|
G|------------------------------------------|
D|-0-0-X--0-3-3-X--3-8-8-X--8-5-5-7-7-------|
A|-0-0-X--0-3-3-X--3-8-8-X--8-5-5-7-7-------|
E|-0-0-X--0-3-3-X--3-8-8-X--8-5-5-7-7-------|

D5                       F5
   I feel it deep within
                           Bb5
It's just beneath the skin

I must confess that 
 
I feel like a monster

D5                         F5
   I hate what I've become
                           Bb5
The nightmare's just begun

I must confess that 
[Passagem]          D5
I feel like a monster

                      F5
I feel it deep within
                           Bb5
It's just beneath the skin

I must confess that 
[Passagem]          D5
I feel like a monster

                     F5
I gotta lose control
                     Bb5
Is something radical

I must confess that 
[Passagem]          D5
I feel like a monster

   F5    Bb5         G5  A5  D5
I,    I feel like a monster
   F5    Bb5         G5  A5  D5
I,    I feel like a monster
   F5    Bb5         G5  A5  D5
I,    I feel like a monster
   F5    Bb5         G5  F5
I,    I feel like a monster
00:00 / 00:00
Outros vídeos desta música
Repetir
Outros vídeos desta música
Composição de Gavin Brown / John Cooper / John L. Cooper
Colaboração e revisão:
  • Thiago Almeida
12.241 exibições
    • ½ Tom
    • A
    • Bb
    • B
    • C
    • Db
    • D
    • Eb
    • E
    • F
    • F#
    • G
    • Ab
  • Adicionar à lista

    0 comentários

    Ver todos os comentários

    Entre para oCifra Club PRO

    Tenha acesso a benefícios exclusivos no App e no Site

    • Chega de anúncios

    • Prioridade de compra em lançamentos

    • Mais recursos no app do Afinador

    • Atendimento Prioritário

    • Descontos nos produtos Cifra Club

    • Ajude a produzir mais conteúdo

    00:00 / 00:00
    Capítulos
    • Tocando a Música
    • Apresentação / Equipamentos
    • Afinação
    • Introdução e Primeira Parte - Parte 1 de 6
    • Introdução e Primeira Parte - Parte 2 de 6
    • Introdução e Primeira Parte - Parte 3 de 6
    • Introdução e Primeira Parte - Parte 4 de 6
    • Introdução e Primeira Parte - Parte 5 de 6
    • Introdução e Primeira Parte - Parte 6 de 6
    • Ensinando Refrão
    • Ensinando Ponte
    • Ensinando Terceira Parte - Parte 1 de 4
    • Ensinando Terceira Parte - Parte 2 de 4
    • Ensinando Terceira Parte - Parte 3 de 4
    • Ensinando Terceira Parte - Parte 4 de 4
    • Ensinando Variação do Refrão - Parte 1 de 2
    • Ensinando Variação do Refrão - Parte 2 de 2
    • Dica
    • Ensinando Ponte e Final - Parte 1 de 4
    • Ensinando Ponte e Final - Parte 2 de 4
    • Ensinando Ponte e Final - Parte 3 de 4
    • Ensinando Ponte e Final - Parte 4 de 4
    • Ensinando Refrão - Guitarra 2
    • Encerramento

    Cifra Club Pro

    Aproveite o Cifra Club com benefícios exclusivos e sem anúncios
    Cifra Club Pro
    Aproveite o Cifra Club com benefícios exclusivos e sem anúncios
    OK