Cifra Club

Rise

Skillet

Cifra: Principal (violão e guitarra)
tom: G
Riff 2x

E|-----------------------------------------------------
B|---------12-12-12--10-10-10--13-13-13----------------
G|--9-9-9----------------------------------------------

E|---------------------------------------------------------------------------
B|---------12-12-12--10-10-10--8-8-10-10----------12-12-12--10-10-10--13-13-13
G|--9-9-9--------------------------------9-9-9-------------------------------

E|----------------------------------------------------
B|---------12-12-12--10-10-10--13-13-13---------------
G|--9-9-9---------------------------------------------

E|----------------------------------------------------
B|---------12-12-12--10-10-10--13-13-13---------------
G|--9-9-9---------------------------------------------

E|---------------------------------------------------------------------------
B|---------12-12-12--10-10-10--8-8-10-10----------12-12-12--10-10-10--13-13-13
G|--9-9-9--------------------------------9-9-9-------------------------------

E|---------------------------------------------------
B|---------12-12-12--10-10-10--8-8-10-----------------
G|--9-9-9--------------------------------------------

Intro: (With riff)

(Em, G, C, A)(4x)

Verse 1

Em
All I see is
Em
Shattered pieces
G               G
I can't keep it hidden like a secret
C             C
I can't look away!
A                       A
From all this pain in a world we made!

Verse 2:

Em
Everyday you need
Em
A bulletproof vest
G                     G
To save yourself from what you could never guess!
C           C
Am I safe today?
       A                   A
When I step outside in the wars we wage!

Pre-chorus:

C
Our future's here and now,
D                  D#
Here comes the countdown!

(Refrão)

Em                 Em
Sound it off, this is the call!
C            A  (B)
Rise and revolution!
Em               Em
It's our time to change it all,
C            A  (B)
Rise and revolution!
Em    Em         C          A       B
Unite, and fight, to make a better life!
C
Everybody one for all,
D               D#               Em       Em
Sound off, this is the call, tonight, we rise!
Em   Em
Rise.
G         G
  Tonight, we rise
  C
  Rise.
  A
  Tonight, we rise!

Verse 3:

Em
Like a hand grenade,
Em
Thrown in a hurricane,
G
Spinning in chaos,
G
Trying to escape the flame,
C             C
Yesterday is gone!
A                       A
Faster than the blast of a car bomb!

Verse 4:

Em
And when the scars heal,
Em
The pain passes,
G                 G
As hope burns, we rise from the ashes!
C              C
Darkness fades away!
A                       A
And a light shines on a brave new day!

Pre-chorus:

C
Our future's here and now,
D              D    D#
Here comes the countdown!

(Refrão)

Em                 Em
Sound it off, this is the call!
C            A  (B)
Rise and revolution!
Em               Em
It's our time to change it all,
C            A  (B)
Rise and revolution!
Em    Em         A          B          C
Unite, and fight, to make a better life!
C
Everybody one for all,
D          D        D#       Em       Em
Sound off, this is the call, tonight, we rise!
Em   Em
Rise.
G         G
  Tonight, we rise
  C   C
  Rise.
  A      A
  Tonight, we rise!
  (Em)

Bridge:

C
In a world gone mad,
B             A
In a place so sad!
                      Em
Sometimes it's crazy, crazy,
G           G        G
To fight for what you believe!
C                      B     A
But you can't give up,
A            A                   Em
If you wanna keep what you love!
(Keep what you love)
(Keep what you love)
(Keep what you love)
(Keep what you love)
A    B    C   D
Never give up, no!

(Refrão)

Em
Rise.
G
Rise and revolution
C
Rise.
A
Rise and revolution

C
Everybody one for all,
D          D      D#
Sound off, this is the call!

Em
Rise
Em
Like we're alive
G       G
Tonight, we rise,
C
Rise.
C                  A
Make a better life
A
Tonight, we rise!
Em
Rise.
Rise, rise and revolution
Rise, rise, rise and revolution
Rise.
Composição de John L. Cooper / Scott Stevens
Colaboração e revisão:
13.724 exibições
    • ½ Tom
    • A
    • Bb
    • B
    • C
    • Db
    • D
    • Eb
    • E
    • F
    • F#
    • G
    • Ab
  • Adicionar à lista

    0 comentários

    Ver todos os comentários
    00:00 / 00:00
    Outros vídeos desta música
    Repetir Qualidade Automático
    Outros vídeos desta música
    00:00 / 00:00
    Automático

    Cifra Club Pro

    Aproveite o Cifra Club com benefícios exclusivos e sem anúncios
    Cifra Club Pro
    Aproveite o Cifra Club com benefícios exclusivos e sem anúncios
    OK