Cifra Club

Aprenda

Weak

Skunk Anansie

Cifra: Principal (violão e guitarra)
Já pensou em usar uma coleção de roupas do Cifra Club? Responda as perguntas abaixo e nos ajude nessa missão! →
tom: D
Intro:

H= hammer
P= Pull Off
/= Slide
??= partes que não consegui tirar
                                                         (1x)
|--------------------------------------------------|
|--------------------------------------------------|
|-9-9------7--5--5-5--5h7p5-----------9-9-----7--5-|
|-9-9---------5--5-5--------5h7p5---5-9-9--------5-|
|-7-7--7-9----3--3-3--------------7---7-7--7-9---3-|
|--------------------------------------------------|
 
Verse:
   E  D  C  (8x)
|--------------|
|--------------|
|--9--7--5--5--|
|--9--7--5--5--|
|--7--5--3--3--|
|--------------|
Obs: eu repeti o C pq são 2 tempos nele!

E           D          C    
Lost in time I can't count the words
I said when I thought they went unheard
All of those hash thoughts so unkind
Cos I wanted you
 
And now I sit here all alone
So here sits a fucking mess, tears fly home
A circle of angles, deep in war
Cos I wanted you

Chorus:
                               (3x)            (1x)
|----------------------------------|--------------|
|----------------------------------|--------------|
|-9-9-----7-5--5-5-5h7p5-----------|-9-9------7-5-|
|-9-9-------5--5-5-------5h7p5---5-|-9-9--------5-|
|-7-7-7-9---3--3-3-------------7---|-7-7--7-9---3-|
|----------------------------------|--------------|
 
Weak as I am, No tears for you
Weak as I am, No tears for you
Deep as I am, I'm no ones fool
Weak as I am

Verse:
            (4x)
|--------------|
|--------------|
|--9--7--5--5--|
|--9--7--5--5--|
|--7--5--3--3--|
|--------------|

E           D          C  
So what am I now I'm loves last home
I'm all of the soft words I once owned
If I opened my heart, there'd be no space for air
Cos I wanted you

Chorus:
                                     (4x)
|---------------------------------------|
|---------------------------------------|
|--9-9------7---5--5-5---5h7p5----------|
|--9-9----------5--5-5---------5h7p5----|
|--7-7--7-9-----3--3-3---------------7--|
|---------------------------------------|
 
Weak as I am, No tears for you
Weak as I am, No tears for you
Deep as I am, I'm no ones fool
Weak as I am

Verse 2:
    G  A  C  D (3x)
e|---------------|   G|-------------------|
D|---------------|   D|-------------------|
G|--------5--7---|   A|--------3------5-5-|
D|--5--7--5--7---|   E|-3--3-5----3-5-----|
A|--5--7--3--5---|     Bass
E|--3--5---------|   

G  A
In this tainted soul
C
In this weak young heart
D
Am I too much for you
 
In this tainted soul
In this weak young heart
Am I too much for you
 
In this tainted soul
In this weak young heart
Am I too much for you

Bridge: ??


Chorus:
          
|---------------------------------------|
|---------------------------------------|
|--9-9------7---3--5-5---5h7p5----------|
|--9-9----------3--5-5---------5h7p5----|
|--7-7--7-9-----5--3-3---------------7--|
|---------------------------------------|
 
Weak as I am
Weak as I am
Weak as I am
Weak as I am
am
am


Solo: ??

Weak as I am
Am I too much for you
Weak as I am
Am I too much for you
Weak as I am
Am I too much for you
Weak as I am

|-----------------------------------|
|-----------------------------------|
|--9-9------7--7/5-5----------------|
|--9-9---------------5-5h7-7-7-7p5--|
|--7-7--7h9-------------------------|
|-----------------------------------|

Bass:

|-----------------------------------|
|-----------------------------------|
|-----5-----------------------------|
|--0-----------9/7-7-3-5-5-5-5-5-3--|
Composição de Richard Lewis / Robbie France / Skin
Colaboração e revisão:
  • Danilo Costa
3.201 exibições
    • ½ Tom
    • A
    • Bb
    • B
    • C
    • Db
    • D
    • Eb
    • E
    • F
    • F#
    • G
    • Ab
  • Adicionar à lista

    0 comentários

    Ver todos os comentários

    Conseguiu tocar?

    0 Tocaram 0 Ainda não

    Grave um vídeo tocando Weak e nos envie!

    00:00 / 00:00
    Outros vídeos desta música
    Repetir Qualidade Automático
    Outros vídeos desta música
    00:00 / 00:00
    Automático

    Cifra Club Pro

    Aproveite o Cifra Club com benefícios exclusivos e sem anúncios
    Cifra Club Pro
    Aproveite o Cifra Club com benefícios exclusivos e sem anúncios
    OK