Cifra Club

This Is Me

Skye Sweetnam

Cifra: Principal (violão e guitarra)
tom: G
(intro) Cadd9  Em7  Cadd9  D  Cadd9  Em7  Cadd9  G  G/F#

tabs & dicase
E |--------|------3-|--------|--------0h2-|
B |------3-|--------|------3-|------3-----|
G |----0---|----0---|----0---|----2-------|
D |--------|-2------|--------|-0----------|
A |-3------|--------|-3------|------------|
E |--------|--------|--------|------------|
then
E |--------|------3-|--------|---------------|
B |------3-|--------|------3-|------3------3-|
G |----0---|----0---|----0---|----0------0---|
D |--------|-2------|--------|---------------|
A |-3------|--------|-3------|---------------|
E |--------|--------|--------|-3------2------|

Verse 1: (Continue the intro for guitar 2)
Cadd9  Em7           Cadd9      D
  Everyone has got a secret side
Cadd9       Em7          Cadd9      G    G/F#
  a winding path up to a door thats open wide
Cadd9           Em7             Cadd9            D
  You think you know me But I'm changing all the time
Em7                   Dsus4/F#             G
  Cause if I wanna be sweet, if I wanna be wild
             Cadd9
  If I wanna cry like a child
Em7                Dsus4/F#                 G
  If I pick up the world, it's a ball in my hand
                 Am         Cadd9
  I guess that's just who I am

Chorus:
        C           D       Em       C             D
This is me, can't ignore it Reaching out, breaking free
Em      C           D       Em    G
    Em
Constantly, falling forward Yeah, I'm just going for it
D/F#
This is me

(Repeat Intro while guitar 3 will enter)

* means harmonics

 tabs & dicasGuitar 3: 1:00
E |-15--14------14----------------------------------------------|
B |---------15------15------------------------------------------|
G |---------------------14--14p12h14p12----------------------5*-|
D |-------------------------------------12--12p10/12\9h10-------|
A |-------------------------------------------------------10----|
E |-------------------------------------------------------------|

Verse 2:
Cadd9       Em7          Cadd9       D
  Sometimes life is a confusing thing
Cadd9    Em7                Cadd9    G    G/F#
  When I talk it seems like no one's listening
Cadd9          Em7          Cadd9      D
  Try to be an angel, but I just can't find my wings
Em7              Dsus4/F#             G
  If  I wanna be sweet, but I wanna be wild
              Cadd9
  And I wanna ride my own style
Em7                 Dsus4/F#              G
  So I'll make a mistake, and I'll do it again
                     Am     Cadd9
  But I'll do it the best I can

(Repeat Chorus)

Bridge:
C    D                  C
     More than what you see
D               C     D
Finding out who I can be

Interlude: C D Em C D Em

Guitar 3:
E |-------7--5--7--5--7--5--7--5--7--8--7---------|
B |---7h8-----------------------------------------|
G |-7--------------------------------------9*--7*-|
D |-----------------------------------------------| (x2)
A |-----------------------------------------------|
E |-----------------------------------------------|

(Repeat Chorus until fade out)
00:00 / 00:00
Outros vídeos desta música
Repetir
Outros vídeos desta música
Compositor não encontrado.
Colaboração e revisão:
  • Jéssica Souza
1.805 exibições
    • ½ Tom
    • A
    • Bb
    • B
    • C
    • Db
    • D
    • Eb
    • E
    • F
    • F#
    • G
    • Ab
  • Adicionar à lista

    0 comentários

    Ver todos os comentários

    Entre para oCifra Club PRO

    Tenha acesso a benefícios exclusivos no App e no Site

    • Chega de anúncios

    • Prioridade de compra em lançamentos

    • Mais recursos no app do Afinador

    • Atendimento Prioritário

    • Descontos nos produtos Cifra Club

    • Ajude a produzir mais conteúdo

    00:00 / 00:00

    Cifra Club Pro

    Aproveite o Cifra Club com benefícios exclusivos e sem anúncios
    Cifra Club Pro
    Aproveite o Cifra Club com benefícios exclusivos e sem anúncios
    OK