Cifra Club

Back From Cali

Slash

Cifra: Max-sessions (violão e guitarra)
tom: Eb (forma dos acordes no tom de E) Afinação: Eb Ab Db Gb Bb Eb
Intro:
     Bm                   E           D
E|------------------------|---------------|
B|---------3--------------|-------5/3-3---|
G|----2h4--4-4--2-4p2---1-|-------4/2-2---|
D|-4--4------4--4-4-----2-|---4h6---------|
A|-2----------------------|-------------0-|
E|------------------------|---------------|

     Bm                   E           D
E|------------------------|---------------|
B|---------3--------------|-------5/3-3---|
G|----2h4--4-4--2-4p2---1-|-------4/2-2---|
D|-4--4------4--4-4-----2-|---4h6---------|
A|-2----------------------|---------------|
E|------------------------|---------------|

Solo 1 (Juntamente com a Introdução):
       E               D   Bm                                       E
E|------------------10---12b14-14r12p10-12-10------------------------|
B|-----12-12-12-12----------------------------12-12-12---------------|
G|------------------------------------------------------7/9-7/9-7/9--|
D|-------------------------------------------------------------------|
A|-------------------------------------------------------------------|
E|-------------------------------------------------------------------|

Verso 1:
     Bm                   E           D
E|------------------------|---------------|
B|---------3--------------|-------5/3-3---|
G|----2h4--4-4--2-4p2---1-|-------4/2-2---|
D|-4--4------4--4-4-----2-|---4h6---------|
A|-2----------------------|-------------0-|
E|------------------------|---------------|

     Bm                   E           D
E|------------------------|---------------|
B|---------3--------------|-------5/3-3---|
G|----2h4--4-4--2-4p2---1-|-------4/2-2---|
D|-4--4------4--4-4-----2-|---4h6---------|
A|-2----------------------|---------------|
E|------------------------|---------------|

 D                        Bm
Woke up this morning all alone
                      E
I got a ringing in my head
  D                   Bm                                E
I couldn't take it anymore today, she left me here for dead
D
Oh


     Bm                    E    D   A
E|----------------------------------|--------------------------------|
B|-----------------------0----3-3---|-----------------------0------3-|
G|-4--------------2-4----1----2-2-2-|-4--------------2-4----1------2-|
D|-4--4-4---4-0h4-2-4----2----0-0-2-|-4--4-4---4-0h4-2-4----2------0-|
A|-2--2-0h2-2-0h2-0-2p0--2--------0-|-2--2-0h2-2-0h2-0-2p0--2---0h2--|
E|-----------------------0----------|-----------------------0--------|

Verso 2:
     Bm                   E           D
E|------------------------|---------------|
B|---------3--------------|-------5/3-3---|
G|----2h4--4-4--2-4p2---1-|-------4/2-2---|
D|-4--4------4--4-4-----2-|---4h6---------|
A|-2----------------------|-------------0-|
E|------------------------|---------------|

     Bm                   E           D
E|------------------------|---------------|
B|---------3--------------|-------5/3-3---|
G|----2h4--4-4--2-4p2---1-|-------4/2-2---|
D|-4--4------4--4-4-----2-|---4h6---------|
A|-2----------------------|---------------|
E|------------------------|---------------|

 D                         Bm
And it don't come as no surprise
                               E
I should have known if from the start
      D                    Bm                                    E
The lights are faded and I can't deny, this place ain't got no heart



Refrão:
D   E              D
Oh, you can hear me tonight
E              D
You can hear me tonight

     Bm                    E    D   A
E|----------------------------------|--------------------------------|
B|-----------------------0----3-3---|-----------------------0------3-|
G|-4--------------2-4----1----2-2-2-|-4--------------2-4----1------2-|
D|-4--4-4---4-0h4-2-4----2----0-0-2-|-4--4-4---4-0h4-2-4----2------0-|
A|-2--2-0h2-2-0h2-0-2p0--2--------0-|-2--2-0h2-2-0h2-0-2p0--2--------|
E|-----------------------0----------|-----------------------0--------|

                B
You'll have to carry me back from Cali
      E                      D        A
I'm tired and broken and I lost my way
                B                       E      D
You'll have to carry me back to where I belong

                B
You'll have to carry me back from Cali
     E                     D           A
I don't want money, I don't need the fame
                B                          E    D
You'll have to carry me back to where I belong


       G    D   A  B
E|---3-3--2-2------------------------------
B|---3-3--3-3-2------------------7-6-5--3------
G|---0-0--2-2-2--4-4-4-----------8-7-6--4-----
D|---0-0--0-0-2--4-4-4-----0h4-----------------
A|---2-2------0--2-2-0h2-2-0h2------------------
E|---3-3-------------------------7-6-5--3--

G          D              B
I got to leave this angel city
G       D           B
I can't do it by myself
G           D                       B
So if you please, mama, can you save me
G            D   A          F#   A
Before I blow this life to hell



Solo:
     Bm                                         E                 D
E|-------------------------------------------------------7/5----------------|
B|--9/10-10--9-10--9/ 10-10--9--10-10-9/7-9-7h9--9--7--7-9/7--7-5-6r5p3-5-3-|
G|-10/11-11-10-11-10/ 11-11-10--11-11-9/7-9-7h9--9--7--7--------------------|
D|--------------------------------------------------------------------------|
A|--------------------------------------------------------------------------|
E|--------------------------------------------------------------------------|

      Bm                                  E   D                Bm
E|-/7--7-10-7-12b14-10-10b12--------10b12-------7-5-------------------------|
B|---------------------------12--10---------7b9-----7-5---5-----------------|
G|------------------------------------------------------8---8------4-6b7-4--|
D|--------------------------------------------------------------4h6---------|
A|--------------------------------------------------------------------------|
E|--------------------------------------------------------------------------|

          E     D            Bm           E
E|-------------------------------------------10-9-7-------------------------|
B|-------------------------------------9--9--------9-7----------------------|
G|-6p4---4---------------------4h6/7/8----------------9-7-------------------|
D|-----6------6b7 r6-4-----------------------------------9-7----------------|
A|---------------------7-6-2--------------------------------9-7-------------|
E|--------------------------------------------------------------------------|

      Bm
Oh, love mama drag me by the feet
              E
And just drag me home

     Bm                    E    D   A
E|----------------------------------|--------------------------------|
B|-----------------------0----3-3---|-----------------------0------3-|
G|-4--------------2-4----1----2-2-2-|-4--------------2-4----1------2-|
D|-4--4-4---4-0h4-2-4----2----0-0-2-|-4--4-4---4-0h4-2-4----2------0-|
A|-2--2-0h2-2-0h2-0-2p0--2--------0-|-2--2-0h2-2-0h2-0-2p0--2--------|
E|-----------------------0----------|-----------------------0--------|

You'll have to carry me back from Cali
I don't care if you think I'm to blame
You'll have to carry me back to where I belong
You'll have to carry me back from Cali
The angel city where the devils play
You'll have to carry me back to where I belong

Yeah...
You can hear me tonight...
You can hear me tonight...
You can hear me tonight...
You can hear me tonight...

G                                   D                              Bm
I've lost my way, I'm so alone and all I want to do is come home...
00:00 / 00:00
Outros vídeos desta música
Repetir
Outros vídeos desta música
Composição de . Myles Kennedy / Slash
Colaboração e revisão:
  • Leonardo Martins
  • Hugo
6.504 exibições
    • ½ Tom
    • A
    • Bb
    • B
    • C
    • Db
    • D
    • Eb
    • E
    • F
    • F#
    • G
    • Ab
  • Adicionar à lista

    0 comentários

    Ver todos os comentários
    00:00 / 00:00

    Cifra Club Pro

    Aproveite o Cifra Club com benefícios exclusivos e sem anúncios
    Cifra Club Pro
    Aproveite o Cifra Club com benefícios exclusivos e sem anúncios
    OK