Cifra Club

Aprenda

Bad Rain

Slash

Cifra: Principal (violão e guitarra)
tom: A
Afinação: Eb Bb Gb Db Ab Db

Verso:

Slash
E|---------------------------|
B|---------------------------|
G|---------------------------|
D|---------------------------|
A|----------------5-4-3------| 7x
D|-0-2-3-2-0---7---------3---|

E|---------------------------|
B|---------------------------|
G|---------------------------|
D|------------------------10-|
A|----------------5-4-3---10-|
D|-0-2-3-2-0---7----------10-|

Ponte:

Slash
E|--------------------------------------|
B|--------------------------------------|
G|--------------------------------------|
D|--------------------------------------|
A|-7-7-7-7-7-7-7-7-7-7-7-7-7-10-10-10---|
D|-7-7-7-7-7-7-7-7-7-7-7-7-7-10-10-10---|

Refrão:

Slash:
E|------------------------------------|
B|------------------------------------|
G|-------------------3----------------|
D|---3-----3-----x---3----------------|
A|-0---3h5---3h5 x 0h1-3--------------| 3x
D|-0-------------------3-0-2-3-2------|

Myles:
E|------------------------------------|
B|------------------------------------|
G|------------------------------------|
D|------------------------------------|
A|-0--7--5-7-8--3---------------------| 3x
D|-0--7--5-7-8--3--------0-2-3-2------|

E|------------------------------------|
B|------------------------------------|
G|-------------------3-5--------------|
D|-0-7-----3-----x---3-5--------------|
A|-0-7-3h5---3h5 x 0h1-3--------------|
D|-0----------------------------------|

Verso:

Slash
E|---------------------------|
B|---------------------------|
G|---------------------------|
D|---------------------------|
A|-0-2-3-2-0---7--10-9-8--3--| 7x
D|-0-2-3-2-0---7--10-9-8--3--|

E|---------------------------|
B|---------------------------|
G|---------------------------|
D|------------------------10-|
A|-0-2-3-2-0---7--10-9-8--10-|
D|-0-2-3-2-0---7--10-9-8--10-|

Ponte:

Slash
E|--------------------------------------|
B|--------------------------------------|
G|--------------------------------------|
D|--------------------------------------|
A|-7-7-7-7-7-7-7-7-7-7-7-7-7-10-10-10---|
D|-7-7-7-7-7-7-7-7-7-7-7-7-7-10-10-10---|

Refrão:

Slash:
E|------------------------------------|
B|------------------------------------|
G|-------------------3----------------|
D|---3-----3-----x---3----------------|
A|-0---3h5---3h5 x 0h1-3--------------| 4x
D|-0-------------------3-0-2-3-2------|

Myles:
E|------------------------------------|
B|------------------------------------|
G|------------------------------------|
D|------------------------------------|
A|-0--7--5-7-8--3---------------------| 3x
D|-0--7--5-7-8--3--------0-2-3-2------|

E|------------------------------------|
B|------------------------------------|
G|-------------------3-5--------------|
D|-0-7-----3-----x---3-5--------------|
A|-0-7-3h5---3h5 x 0h1-3--------------|
D|-0----------------------------------|

Pre-Solo:

Myles:
E|-----------------------------------------------------------------|
B|-----------------------------------------------------------------|
G|-----------------------------------------------------------------|
D|-----------------------------------------------------------------|
A|-3-3-3-3-3-3-3-3-3-3-3-3-3-3-3-3-7-7-7-7-7-7-7-7-7-7-7-7-7-5-7---|
D|-3-3-3-3-3-3-3-3-3-3-3-3-3-3-3-3-7-7-7-7-7-7-7-7-7-7-7-7-7-5-7---|

E|-----------------------------------------------------------------|
B|-----------------------------------------------------------------|
G|-----------------------------------------------------------------|
D|-----------------------------------------------------------------|
A|-8-8-8-8-8-8-8-9-9-9-9-9-9-9-10-10-10-10-10-10-10-10-10-10-7-7-7-|
D|-8-8-8-8-8-8-8-9-9-9-9-9-9-9-10-10-10-10-10-10-10-10-10-10-7-7-7-|

Slash:
E|----------------------------------------------------------------------|
B|----------------------------------------------------------------------|
G|-10-10-10-10-10-10-10-10-10-10-10-10--10s12-10-9----------------------|
D|--------------------------------------------------7-7-7-7-5-7---------|
A|-8--8--8--8--8--8--8--8--8--8--8--8---8s10--8--7----------------------|
D|--------------------------------------------------7-------------------|

E|-------------------------------------|
B|-------------------------------------|
  Gb|0s3-------4-------5-5-5-5-5-------|
D|-----0-0-----0-0-------------7-7-xx--|
A|-------------------------------------|
D|-----------------------------7-7-xx--|

Solo:

Slash
E|-------------------------------------------------------------------------|
B|-11b13-11b13r11-10b11r10-9b10-8b10-6h8-6b8-5h6-5h6p5-5b6r5---------------|
G|------------------------------------------------------------5~------17---|
D|---------------------------------------------------------------0s19----19|
A|-------------------------------------------------------------------------|
D|-------------------------------------------------------------------------|

E|------------------------------------------------------20-----20----20----|
B|---------18-------20b22r20p18-20b22r20p18----18h20b22----20-----19----17-|
G|19-17-------19-17-------------------------19-----------------------------|
D|------19-----------------------------------------------------------------|
A|-------------------------------------------------------------------------|
D|-------------------------------------------------------------------------|

E|---------------------|
B|---------------------|
G|-12b14-12b14~-10-----|
D|-----------------12/-|
A|---------------------|
D|---------------------|

E|---5---6---5--|
B|-6-6---6---6--|
G|-7-----7---5--|
D|--------------| 4x
A|--------------|
D|--------------|

Refrão:

Slash:
E|------------------------------------|
B|------------------------------------|
G|-------------------3----------------|
D|---3-----3-----x---3----------------|
A|-0---3h5---3h5 x 0h1-3--------------| 4x
D|-0-------------------3-0-2-3-2------|

Myles:
E|------------------------------------|
B|------------------------------------|
G|------------------------------------|
D|------------------------------------|
A|-0--7--5-7-8--3---------------------| 3x
D|-0--7--5-7-8--3--------0-2-3-2------|

E|------------------------------------|
B|------------------------------------|
G|-------------------3-5--------------|
D|-0-7-----3-----x---3-5--------------|
A|-0-7-3h5---3h5 x 0h1-3--------------|
D|-0----------------------------------|

Refrão Final:

Slash
E|---------------------------------------------------------------------|
B|---------------------------------------------------------------------|
G|---------------------------------------------------------------------|
D|-0-0-3p0-0-7-0-0-3p0-10-9-8-0-3p0-0-6b7-0-2-3-2----------------------|
A|---------------------------------------------------------------------| 3x
D|---------------------------------------------------------------------|

E|---------------------------------------------------------------------|
B|---------------------------------------------------------------------|
G|---------------------------------------------------------------------|
D|-0-0-3p0-0-7-0-0-3p0-10-9-8-0-3p0-0-5--------------------------------|
A|---------------------------------------------------------------------|
D|---------------------------------------------------------------------|
Composição de M. Kennedy / S. Hudson
Colaboração e revisão:
  • Vitor Correa
  • Paula Tejano
3.134 exibições
    • ½ Tom
    • A
    • Bb
    • B
    • C
    • Db
    • D
    • Eb
    • E
    • F
    • F#
    • G
    • Ab
  • Adicionar à lista

    0 comentários

    Ver todos os comentários
    00:00 / 00:00
    outros vídeos desta música
    repetir qualidade Automático
    Outros vídeos desta música
    00:00 / 00:00
    Automático

    Cifra Club Pro

    Aproveite o Cifra Club com benefícios exclusivos e sem anúncios
    Cifra Club Pro
    Aproveite o Cifra Club com benefícios exclusivos e sem anúncios
    OK