Cifra Club

Aprenda

Bent To Fly

Slash

Cifra: Principal (violão e guitarra)
tom: B (forma dos acordes no tom de C) Afinação: Eb Ab Db Gb Bb Eb
[Intro]

     Dm                      C9      G/B         G      F
Eb|-------1------------------------------------------------------1|
Bb|-----3---3-------3---------------------3--------------------1--|
Gb|---2-------2---2---2---2-----0-------0---0---------0------2----|
Db|-0-----------0-------0-----0---0---0-------0-----0------3------|
Ab|-------------------------3-------2-------------2------3--------|
Eb|---------------------------------------------3------1----------|

[Versos]

    Dm             C9      G/B       F/C
Eb|--------1-----------------------------------0--|
Bb|------2------3----------------3-----------1----|
Gb|----3------2--------0-------0---------0h2------|
Db|--0---------------0---0---0---------3----------|
Ab|----------------3-------2---------3------------|
Eb|-----------------------------------------------|

     Dm            C9      G/B         G       
Eb|--------1------------------------------------------|
Bb|------2------3----------------3--------------------|
Gb|----3------2--------0-------0---0---------0--------|
Db|--0---------------0---0---0-------0-----0-------0--|
Ab|----------------3-------2-------------2-------2----|
Eb|------------------------------------3-------3------|

Dm
Mama, don't you cry
G               F
Don't you worry
Dm                     G       F
I cannot stay here any longer
Dm                       G                  F
The time has come to find a distant calling
Dm                          G        F
That only seems to get much stronger

F                    A/E
And I know it's hard
                          G/D
To see the one you come to lean on make his way
       A#
Far beyond the womb
      F5       C5
But, I can't stay

[Refrão]

     D5                C9    F5     G       
Eb|---------------------------------------3------------------|
Bb|--2-----3--------3---------------------3------------------|
Gb|--3-----2--------2---------------0--x--0-----------0------|
Db|--0-----0---3b---0----0---3--x-3-0--x--0-------------0-3~-|
Ab|-----3--------------3---0-3--x-3-2--x--2-----0-1-2--------|
Eb|--------------------------1--x-1-3--x--3---3--------------|

     D5                C9    F5     G
Eb|---------------------------------------3---|
Bb|--2-----3--------3---------------------3---|
Gb|--3-----2--------2---------------0-----0---|
Db|--0-----0---3b---0----0---3--x-3-0-----0---|
Ab|-----3--------------3---0-3--x-3-2-----2---|
Eb|--------------------------1--x-1-3-----3---|

  Dm
I won't stop running
                  G
I'm only getting closer
                                Dm   G
To getting off the ground this ti......me
    Dm                                 G
The sky is calling, the wind is at my shoulders
                              Dm  G
Won't let this chance pass me b.....y
                   Dm
Mama, I'm bent to fly

[Solo 1]

Eb|---------------------------------------------|
Bb|---------------------------------------------|
Gb|---------------------------------------------|
Db|---------------------------------------------|
Ab|------5---7b8~--b8r7b8r7b8r7b8r7--5h7--------|
Eb|--5h7---7-----------------------------5h7~~--|

Eb|-----------------------------------------------------|
Bb|-----------------------------------------------------|
Gb|-----------------------------------------------------|
Db|----------5h7----------------------------------------|
Ab|------5--------7b8~----b8r7p5-b8r7b8r7b8r7b8r7--5h7--|
Eb|--5h7---7--------------------------------------------|

Eb|------------------------|
Bb|------------------------|
Gb|------------------------|
Db|------------------------|
Ab|-------------------3/5--|
Eb|--5/7--5---3---1--------|

[Versos]

    Dm             C9      G/B       F/C
Eb|--------1-----------------------------------0--|
Bb|------2------3----------------3-----------1----|
Gb|----3------2--------0-------0---------0h2------|
Db|--0---------------0---0---0---------3----------|
Ab|----------------3-------2---------3------------|
Eb|-----------------------------------------------|

     Dm            C9      G/B         G       
Eb|--------1------------------------------------------|
Bb|------2------3----------------3--------------------|
Gb|----3------2--------0-------0---0---------0--------|
Db|--0---------------0---0---0-------0-----0-------0--|
Ab|----------------3-------2-------------2-------2----|
Eb|------------------------------------3-------3------|

Dm
Remember yesterday
G               F
Before the storm
Dm               G        F
Before the innocence was lost
Dm               G               F
I promised I would stay forevermore
Dm                 G         F
But every boy, in time, moves on

F                      A/E
Your wounds will heal someday
                       G/D
This I know, but I am restless and so torn
A#            F5    C5
Mama, I can't stay here anymore

[Refrão]

     D5                C9    F5     G       
Eb|---------------------------------------3------------------|
Bb|--2-----3--------3---------------------3------------------|
Gb|--3-----2--------2---------------0--x--0-----------0------|
Db|--0-----0---3b---0----0---3--x-3-0--x--0-------------0-3~-|
Ab|-----3--------------3---0-3--x-3-2--x--2-----0-1-2--------|
Eb|--------------------------1--x-1-3--x--3---3--------------|

     D5                C9    F5     G
Eb|---------------------------------------3---|
Bb|--2-----3--------3---------------------3---|
Gb|--3-----2--------2---------------0-----0---|
Db|--0-----0---3b---0----0---3--x-3-0-----0---|
Ab|-----3--------------3---0-3--x-3-2-----2---|
Eb|--------------------------1--x-1-3-----3---|

  Dm
I won't stop running
                  G
I'm only getting closer
                                Dm   G
To getting off the ground this ti......me
    Dm                                 G
The sky is calling, the wind is at my shoulders
                              Dm    G
Won't let this chance pass me b.....y
                   A
Mama, I'm bent to fly

[Ponte]

    A5     
Eb|-----------------------------------------------------|
Bb|-----------------------------------------------------|
Gb|--2------2-----2-----2-----2-----2------2--2------2--|
Db|--2------2-----2-----2-----2-----2------2--2------2--|
Ab|--0------0-----0-----0-----0-----0----x-0--0--3b--0--|
Eb|------3b----3b----3b----3b----3b------x--------------|

                                 A5  G   F   E5  D5
Eb|-------------------------------------------------|
Bb|----------------------------------------------3--|
Gb|-----2-----2-----2-----2--x---2---0---2-------2--|
Db|-----2-----2-----2-----2--x---2---0---3---2---0--|
Ab|-----0-----0-----0-----0--x---0---2---3---2------|
Eb|--3b----3b----3b----3b------------3---1---0------|

A5                    
I can feel it coming
A5                       
A perfect storm is rising
A5                     A5  G  F  E5  D5
Gotta say my last goodbye

[Solo 2] D5  F5  G5

Eb|------------13---------------------------------|
Bb|--13-----------13--------------12b13-----------|
Gb|--12b14~~---------14r12--10----12b13--10--12~--|
Db|----------------------------12-----------------|
Ab|-----------------------------------------------|
Eb|-----------------------------------------------|

Eb|--------------------------------------------------|
Bb|--------12-10----------------------------13-13~~--|
Gb|--10----12-10-------10~----12--10--12/14----------|
Db|-----12-------12-12-------------------------------|
Ab|--------------------------------------------------|
Eb|--------------------------------------------------|

Eb|---------------------------------------10-10~---|
Bb|-----15----13--------------------10/12----------|
Gb|--14----14------14/12p10--12--10----------------|
Db|------------------------------------------------|
Ab|------------------------------------------------|
Eb|------------------------------------------------|

Eb|-----13b17r13-10------10-13-10----10--------|
Bb|--10---------------13----------13----13b15--|
Gb|--------------------------------------------|
Db|--------------------------------------------|
Ab|--------------------------------------------|
Eb|--------------------------------------------|

Eb|--10-------------17b19~----19-17-15-17-15/13-15-13/12-13-12--|
Bb|-----13b15---15----------------------------------------------|
Gb|-------------------------------------------------------------|
Db|-------------------------------------------------------------|
Ab|-------------------------------------------------------------|
Eb|-------------------------------------------------------------|

Eb|---------------------------------------------------------|
Bb|--15-13-15-13h5p13/12-13--12h13p12/10-12--10h12p10/9-10--|
Gb|---------------------------------------------------------|
Db|---------------------------------------------------------|
Ab|---------------------------------------------------------|
Eb|---------------------------------------------------------|

Eb|-----------------------------------------------------------|
Bb|--8h10p8----8-10p8----8------------------------------------|
Gb|---------10--------10---10~----7--------9b10r9b10r9b10r9~--|
Db|---------------------------------10p9p8--------------------|
Ab|-----------------------------------------------------------|
Eb|-----------------------------------------------------------|

Eb|--------------------------------------------------------|
Bb|--------------------------------------------------------|
Gb|--7----10p9p7-----7-------------------------------------|
Db|----10---------10---10-9-----7h9-7b9r7---5~---3~--------|
Ab|--------------------------------------------------3/5~--|
Eb|--------------------------------------------------------|

[Versos]

    Dm             C9      G/B       F/C
Eb|--------1-----------------------------------0--|
Bb|------2------3----------------3-----------1----|
Gb|----3------2--------0-------0---------0h2------|
Db|--0---------------0---0---0---------3----------|
Ab|----------------3-------2---------3------------|
Eb|-----------------------------------------------|

     Dm            C9      G/B         G       
Eb|--------1------------------------------------------|
Bb|------2------3----------------3--------------------|
Gb|----3------2--------0-------0---0---------0--------|
Db|--0---------------0---0---0-------0-----0-------0--|
Ab|----------------3-------2-------------2-------2----|
Eb|------------------------------------3-------3------|

Dm
Mama, don't you cry
G               F
Don't you worry
Dm                     G
I cannot stay here any longer

[Refrão]

     D5                C9    F5     G       
Eb|---------------------------------------3------------------|
Bb|--2-----3--------3---------------------3------------------|
Gb|--3-----2--------2---------------0--x--0-----------0------|
Db|--0-----0---3b---0----0---3--x-3-0--x--0-------------0-3~-|
Ab|-----3--------------3---0-3--x-3-2--x--2-----0-1-2--------|
Eb|--------------------------1--x-1-3--x--3---3--------------|

     D5                C9    F5     G
Eb|---------------------------------------3---|
Bb|--2-----3--------3---------------------3---|
Gb|--3-----2--------2---------------0-----0---|
Db|--0-----0---3b---0----0---3--x-3-0-----0---|
Ab|-----3--------------3---0-3--x-3-2-----2---|
Eb|--------------------------1--x-1-3-----3---|

  Dm
I won't stop running
                  G
I'm only getting closer
                                Dm   G
To getting off the ground this ti......me
    Dm                                 G
The sky is calling, the wind is at my shoulders
                              Dm    G
Won't let this chance pass me b.....y
                   Dm
Mama, I'm bent to fly

(Ponte)

A5                    
I can feel it coming
A5                       
A perfect storm is rising
A5                     A5  G  F  E5  D5
Gotta say my last goodbye
Composição de M. Kennedy / S. Hudson
Colaboração e revisão:
22.952 exibições
    • ½ Tom
    • A
    • Bb
    • B
    • C
    • Db
    • D
    • Eb
    • E
    • F
    • F#
    • G
    • Ab
  • Adicionar à lista

    0 comentários

    Ver todos os comentários
    00:00 / 00:00
    outros vídeos desta música
    repetir qualidade Automático
    Outros vídeos desta música
    00:00 / 00:00
    Automático

    Cifra Club Pro

    Aproveite o Cifra Club com benefícios exclusivos e sem anúncios
    Cifra Club Pro
    Aproveite o Cifra Club com benefícios exclusivos e sem anúncios
    OK