Cifra Club

Aprenda

Crucify The Dead

Slash

Cifra: Principal (violão e guitarra)
Já pensou em usar uma coleção de roupas do Cifra Club? Responda as perguntas abaixo e nos ajude nessa missão! →
tom: Db
Intro:

(Guitarra 1)
E|---------------------------------------------|-----------------------------|
B|-----------1-------------------1-----------1-|-----1-----1-------1----1----|
G|--------------2---------------2--2--------2--|------2-----2-------2----2---|
D|---------3------3-------3--0--------3----3---|-----------------------------|
A|-------3-----------3------------------3------|---3-----3-------------------|
D|----0----------------------------------------|-----------------3----0----0-|

E|---------------------------------------------------------------------------|
B|--1------1-----1----1----1----1-----1-----1----1----1-----1----------------|
G|---2------2-----2----2----2----2-----2-----2----2----2-----2---------------|
D|---------------------------------------------------------------------------|
A|------------3-----3--------------------------3----3------------------------|
D|------3----------------3----0----0-----3----------------3-----0------------|

(Guitarra 2)
E|-10/12~~~~~-------------------------13-12--------12-10---------------------|
B|---------------------------------------------------------------------------|
G|------------------14--14---12h14------------14---------12-10--9--10--9p7h9-|
D|---------------------------------------------------------------------------|
A|---------------------------------------------------------------------------|
D|---------------------------------------------------------------------------|

E|---------------------------------------------------------------------------|
B|---------------------------------------------------------------------------|
G|---------7---------------------7-------------------------------------------|
D|-----------------------------7---------------------------------------------|
A|---------------------------------------------------------------------------|
D|---------------------------------------------------------------------------|

Verso:

(Guitarra 1)
E|--------------------------------------------------------------------|
B|---1----1----1-----1---1------1-----1----1----1----1-----1-----1----|
G|----2----2----2-----2---2------2-----2----2----2----2-----2-----2---|
D|--------------------------------------------------------------------|
A|-3----3--------------------------3-----3----------------------------|
D|-----------3-----0----0----3-----------------3----0----0-----3------|

Pré-Refrão:
(Guitarra 2)
E|--------------------|-------------------|-----------------|--------|----|-----|
B|------------------13/12-----10---8--10--|11----10---8-----|--------|----|-----|
G|-12/14---12---10----|-------------------|-----------------|10---9--|-7--|-6---|
D|--------------------|-------------------|-----------------|--------|----|-----|
A|--------------------|-------------------|-----------------|--------|----|-----|
D|--------------------|-------------------|-----------------|--------|----|-----|

(Guitarra 1)
E|--------------------|-------------------|-----------------|--------|----|-----|
B|----1--------1------|---3--------3------|---6--------6----|-----8--|----|-----|
G|---2-2------2-2-----|--4-4------4-4-----|--7-7------7-7---|----9-9-|--7-|--6--|
D|--3---3-3--3---3-3--|-5---5-5--5---5-5--|-8---8-8--8---8-8|--10----|-8--|-7---|
A|-3-----3--3-----3---|5-----5--5-----5---|8-----8--8-----8-|10------|8---|7----|
D|--------------------|-------------------|-----------------|--------|----|-----|

Refrão:

(Guitarra 1)
E|---------------------------------------------------------------------------|
B|---------------------------------------------------------------------------|
G|------5h7-x-x-7-x-7-x-7---------------5-x-x-5-x-5-x-5---5-5----------------|
D|------5h7-x-x-7-x-7-x-7---------------5-x-x-5-x-5-x-5---5-5----------------|
A|------5---x-x-5-x-5-x-5---------3h5---3-x-x-3-x-3-x-3---3-2----------------|
D|--------------------------3h5----------------------------------------------|

E|---------------------------------------------------------------------------|
B|---------------------------------------------------------------------------|
G|------5h7-x-x-7-x-7-x-7---------------5-x-x-5-x-5-x-5---5-5----------------|
D|------5h7-x-x-7-x-7-x-7---------------5-x-x-5-x-5-x-5---5-5----------------|
A|------5---x-x-5-x-5-x-5---------3h5---3-x-x-3-x-3-x-3---3-2----------------|
D|--------------------------3h5----------------------------------------------|

Interludio:

(Guitarra 2)
E|--12---12h13p12/10---------------------------------------------------------|
B|---------------------------13--15------------------------------------------|
G|--------------------14--------------13/12-----10---12----12h13p12p10/7-----|
D|---------------------------------------------------------------------------|
A|---------------------------------------------------------------------------|
D|---------------------------------------------------------------------------|

E|---------------------------------------------------------------------------|
B|---------------------------------------------------------------------------|
G|-----------5------------5b--5----------------------------------------------|
D|---5---7-----------------------7------------------5----7-------------------|
A|----------------------------------------------5----------------------------|
D|---------------------------------------------------------------------------|

Ponte:

(Guitarra 2)
E|---------------------------------------------------------------------------|
B|---------------------------------------------------------------------------|
G|-----9----7---5---------9---7---5----------10---9---7-----------5----------|
D|-----7----5---3---0-----7---5---3---0------8----7---5----0--2---3----0--2--|
A|-----7----5---3---0-----7---5---3---0------8----7---5----0--2---3----0--2--|
D|-----7----5---3---0-----7---5---3---0------8----7---5----0--2---3----0--2--|

E|---------------------------------------------------------------------------|
B|---------------------------------------------------------------------------|
G|-----9----7---5---------9----7--5-----------10--9----7----------10---------|
D|-----7----5---3--0------7----5--3---0-------8---7----5--8--10---8--7--5----|
A|-----7----5---3--0------7----5--3---0-------8---7----5--8--10---8--7--5----|
D|-----7----5---3--0------7----5--3---0-------8---7----5--8--10---8--7--5----|

Solo:

(Guitarra 2)
E|---21b~~~~~21b~~~~~21b~~~21b~~~~21b~~~~21b~~~~21b~~~~~22b-----17--20-20-20-|
B|---------------------------------------------------------------------------|
G|---------------------------------------------------------------------------|
D|---------------------------------------------------------------------------|
A|---------------------------------------------------------------------------|
D|---------------------------------------------------------------------------|

E|--17h20---17h20------17h20p17--17h20p17--17h20p17--17h20p17--17h20p17------|
B|-----------------------------20--------20--------20--------20--------20----|
G|---------------------------------------------------------------------------|
D|---------------------------------------------------------------------------|
A|---------------------------------------------------------------------------|
D|---------------------------------------------------------------------------|

E|---------------------------------------------------------------------------|
B|--20b--18-20-----18h20p18/17-----------20p18p17h18p17--17------------------|
G|-----------------------------------------------------19--19-17--19-17------|
D|--------------------------------------------------------------19-----19-17-|
A|---------------------------------------------------------------------------|
D|---------------------------------------------------------------------------|

E|---------------------------------------------------------------------------|
B|--18-------------------18--------18---20b--18h20--------18---20b--18h20----|
G|----19--------19-17-------19-------19---------------------19---------------|
D|-------------------19------------------------------------------------------|
A|---------------------------------------------------------------------------|
D|---------------------------------------------------------------------------|

E|-------20------------------------------------------------------------------|
B|---18-----20b-------20b---20r-18h20p18-17h18p17--17------------------------|
G|-----19----------------------------------------19--19p17--19p17------------|
D|--------------------------------------------------------19-----19p17-------|
A|--------------------------------------------------------------------19p17--|
D|---------------------------------------------------------------------------|

E|---------------------------------------------------------------------------|
B|-----------------------------------------------20b--20---------------------|
G|--------19p17-------------------------------------------19-----------------|
D|---17h19-----19p17-----17-17---17-17---------------------------------------|
A|-17-------------------------20------19p17----------------------------------|
D|-----------------------------------------19p17-----------------------------|

(Guitarra 2)
E|---------------------------------------------------------------------------|
B|---------------------------------------------------------------------------|
G|---------------------------------------------------------------------------|
D|---------------------------------------------------------------------------|
A|----3h5-x-x-3h5-x-5---0-0-0-3p0-3-----3h5-x-x-3h5-x-5---0-0-0-3p0-3--------|
D|----------------------0-0-0-3p0-3-----------------------0-0-0-3p0-3--------|

E|---------------------------------------------------------------------------|
B|---------------------------------------------------------------------------|
G|---------------------------------------------------------------------------|
D|---------------------------------------------------------------------------|
A|----3h5-x-x-3h5-x-5---0-0-0-3p0-3-----3h5-x-x-3h5-x-5----------------------|
D|----------------------0-0-0-3p0-3------------------------------------------|

Outro:

(Guitarra 2)
E|--10--10-10-10-10---12--12-12-12-12--13--13-13-13-13---15--15-15-15-15--15b|
B|---------------------------------------------------------------------------|
G|---------------------------------------------------------------------------|
D|---------------------------------------------------------------------------|
A|---------------------------------------------------------------------------|
D|---------------------------------------------------------------------------|
Composição de Kevin Churko / Ozzy Osbourne / S. Hudson
Colaboração e revisão:
14.235 exibições
    • ½ Tom
    • A
    • Bb
    • B
    • C
    • Db
    • D
    • Eb
    • E
    • F
    • F#
    • G
    • Ab
  • Adicionar à lista

    0 comentários

    Ver todos os comentários
    00:00 / 00:00
    outros vídeos desta música
    repetir qualidade Automático
    Outros vídeos desta música
    00:00 / 00:00
    Automático

    Cifra Club Pro

    Aproveite o Cifra Club com benefícios exclusivos e sem anúncios
    Cifra Club Pro
    Aproveite o Cifra Club com benefícios exclusivos e sem anúncios
    OK