Cifra Club

Aprenda

El Padrino

Slash

Cifra: Principal (violão e guitarra)
Já pensou em usar uma coleção de roupas do Cifra Club? Responda as perguntas abaixo e nos ajude nessa missão! →
tom: A (forma dos acordes no tom de Bb) Afinação: Eb Ab Db Gb Bb Eb
E|------------------------------------------------------------|
B|-15~--14-15-16~--15-15--------15~--14-15-16~--15-15---------|
G|-----------------------15~--------------------------14~-----|
D|------------------------------------------------------------|
A|------------------------------------------------------------|
E|------------------------------------------------------------|

E|------------------------------------------------------------|
B|-15--14-15b18r15-14b15r14-15b17r15~-------------14b15r14----|
G|------------------------------------14b15r14b15----------14-|
D|------------------------------------------------------------|
A|------------------------------------------------------------|
E|------------------------------------------------------------|

E|-------13-12----13----12----------------|
B|----15-------15----15----15-------------|
G|-14-------------------------15-17-14~---|
D|----------------------------------------|
A|----------------------------------------|
E|----------------------------------------|

E|-------13-12----13----12----------------|
B|----15-------15----15----15-------------|
G|-14-------------------------12/14-13-12-|
D|----------------------------------------|
A|----------------------------------------|
E|----------------------------------------|

E|-------10b12~----------------------------------------------------|
B|----11-----------11-13b15~---------------------------------------|
G|-12-----------12------------14-15-14-17r15-14b15r14--14\10-------|
D|-----------------------------------------------------------10-12-|
A|-----------------------------------------------------------------|
E|-----------------------------------------------------------------|

E|------------------------------------------------------|
B|-15-14-13~-15b17-13-----------------------------------|
G|--------------------15-14~-12b14-10-12~-14b15-12-14~--|
D|------------------------------------------------------|
A|------------------------------------------------------|
E|------------------------------------------------------|

Colaboração e revisão:
23.197 exibições
    • ½ Tom
    • A
    • Bb
    • B
    • C
    • Db
    • D
    • Eb
    • E
    • F
    • F#
    • G
    • Ab
  • Adicionar à lista

    0 comentários

    Ver todos os comentários
    00:00 / 00:00
    outros vídeos desta música
    repetir qualidade Automático
    Outros vídeos desta música
    00:00 / 00:00
    Automático

    Cifra Club Pro

    Aproveite o Cifra Club com benefícios exclusivos e sem anúncios
    Cifra Club Pro
    Aproveite o Cifra Club com benefícios exclusivos e sem anúncios
    OK