Cifra Club

Aprenda

Far And Away

Slash

Cifra: Principal (violão e guitarra)
Já pensou em usar uma coleção de roupas do Cifra Club? Responda as perguntas abaixo e nos ajude nessa missão! →
tom: B (forma dos acordes no tom de C) Afinação: Eb Ab Db Gb Bb Eb
Intro:
E|-----------------------------------------------------------------------|
B|---------5----------------5----------------3----------------3----------|
G|-------5---5------------5---5------------5---5------------5---5--------|
D|-----5-------5--------5-------5--------3-------3--------3-------3------|
A|---7-----------7----7-----------5----3-----------3----3-----------3----|
E|-8----------------6----------------5----------------4------------------|

E|------------------------------------------------------|
B|---------5----------------5----------------3----------|
G|-------5---5------------5---5------------5---5--------|
D|-----5-------5--------5-------5--------3-------3------|
A|---7-----------7----7-----------5----3-----------3----|
E|-8----------------6----------------5---------------4~-|

Verso 1:
E|-----------------------------------------------------------------------|
B|---------5----------------5----------------3----------------3----------|
G|-------5---5------------5---5------------5---5------------5---5--------| (4x)
D|-----5-------5--------5-------5--------3-------3--------3-------3------|
A|---7-----------7----7-----------5----3-----------3----3-----------3----|
E|-8----------------6----------------5----------------4------------------|

E|------------------------------------------------------------------------|
B|---------3----------------5---------------------------------------------|
G|-------3---3------------7---7---------------5---5-----------------------|
D|-----3-------3--------5-------5--------5----5h7-5h7---5------5----------|
A|---5-----------5----5-----------5------5h7--------------7-5--5h7-5------|
E|-6----------------7-----------------8-----------------------------------|

E|------------------------------------------------------------------------|
B|---------3----------------5----------------5h6-5~-----------------------|
G|-------3---3------------7---7------------5------------------------------|
D|-----3-------3--------5-------5--------5--------------------------------|
A|---5-----------5----5-----------5----7----------------------------------|
E|-6----------------7----------------8------------------------------------|

Refrão:
E|-3~---3~---1~--------3~---3~---1~--------3~---3~---1~-----|
B|-3~---3~---1~---555--3~---3~---1~---555--3~---3~---1~-----|
G|-4~---3~---2~---555--4~---3~---2~---555--4~---3~---2~-----|
D|-5~---5~---3~---555--5~---5~---3~---555--5~---5~---3~-----|
A|-5~---5~---3~---333--5~---5~---3~---333--5~---5~---3~-----|
E|-3~---3~---1~--------3~---3~---1~--------3~---3~---1~-----|

E|------------------------------------------------------------------------|
B|---------3----------------5-----------------------------8----------8----|
G|-------3---3------------7---7---------------5----5--7(b9)--9--7(b9)-----|
D|-----3-------3--------5-------5--------5----5h7-------------------------|
A|---5-----------5----5-----------5------5h7------------------------------|
E|-6----------------7-----------------8-----------------------------------|

Verso 2:
E|-----------------------------------------------------------------------|
B|---------5----------------5----------------3----------------3----------|
G|-------5---5------------5---5------------5---5------------5---5--------| (4x)
D|-----5-------5--------5-------5--------3-------3--------3-------3------|
A|---7-----------7----7-----------5----3-----------3----3-----------3----|
E|-8----------------6----------------5----------------4------------------|

E|------------------------------------------------------------------------|
B|---------3----------------5---------------------8---8/10--8-------------|
G|-------3---3------------7---7--------5h7p5--7(b9)--(b9)--------9-5-7-----|
D|-----3-------3--------5-------5-----------------------------------------|
A|---5-----------5----5-----------5---------------------------------------|
E|-6----------------7-----------------------------------------------------|

E|------------------------------------------------------------------------|
B|---------3----------------5----------------5h6-5h6-5~-------------------|
G|-------3---3------------7---7------------5------------------------------|
D|-----3-------3--------5-------5--------5--------------------------------|
A|---5-----------5----5-----------5----7----------------------------------|
E|-6----------------7----------------8------------------------------------|

Refrão:
E|-3~---3~---1~--------3~---3~---1~--------3~---3~---1~-----|
B|-3~---3~---1~---555--3~---3~---1~---555--3~---3~---1~-----|
G|-4~---3~---2~---555--4~---3~---2~---555--4~---3~---2~-----|
D|-5~---5~---3~---555--5~---5~---3~---555--5~---5~---3~-----|
A|-5~---5~---3~---333--5~---5~---3~---333--5~---5~---3~-----|
E|-3~---3~---1~--------3~---3~---1~--------3~---3~---1~-----|

E|-----------------------------------|
B|---------3----------------5--------|
G|-------3---3------------7---7------|
D|-----3-------3--------5-------5----|
A|---5-----------5----5-----------5--|
E|-6----------------7----------------|

Solo:
E|-----------5--------------------------------------------------------------|
B|-------------8---------------------------------------6-8------------------|
G|-----5-7b------7pbr-5---5h7-------5h7-----------5-7b-----7pbr-5---5h7/9~--|
D|-5h7------------------7-----5h7-------6~----5h7-----------------7---------|
A|--------------------------------------------------------------------------|
E|--------------------------------------------------------------------------|

E|-5---------------------------------------------------------------------------------|
B|-5-8----------8b-8brb-6-8b~--8brb-5brb/8~--6h8p6-----------------------------------|
G|-----9\7--5--------------------------------------9---------------------------------|
D|------------7--------------------------------------10----10s12~-------10-12b-12-10-|
A|------------------------------------------------------10--------10h12--------------|
E|-----------------------------------------------------------------------------------|

E|-----------------------------------------|
B|-------------------15brb~--13h15---------|
G|-------12h14-17-14---------------/14-17~-|
D|-12s14-----------------------------------|
A|-----------------------------------------|
E|-----------------------------------------|

E|-------15b--15-13-----------15-------------15---------------15b~-15pbr-13-15b--|
B|------------------17-15b-18----15pbr----------15b------------------------------|
G|-14-17-------------------------------17-14---------17-14h17--------------------|
D|-------------------------------------------------------------------------------|
A|-------------------------------------------------------------------------------|
E|-------------------------------------------------------------------------------|

E|--------------8----8----8----8----8----8----8------------------------------------|
B|-15pbr-13--11---11---11---11---12---12---12---12-13------------------------------|
G|-----------------------------------------------------12h14p12--------------------|
D|--------------------------------------------------------------12h14p12-10h12p12--|
A|---------------------------------------------------------------------------------|
E|---------------------------------------------------------------------------------|

Verso 3:
E|-----------------------------------------------------------------------|
B|---------5----------------5----------------3----------------3----------|
G|-------5---5------------5---5------------5---5------------5---5--------| (4x)
D|-----5-------5--------5-------5--------3-------3--------3-------3------|
A|---7-----------7----7-----------5----3-----------3----3-----------3----|
E|-8----------------6----------------5----------------4------------------|

E|------------------------------------|
B|---------3-----------------5--------|
G|-------3---3-------------7---7------|
D|-----3-------3---------5-------5----|
A|---5-----------5-----5-----------5--|
E|-6-----------------7----------------|

Refrão:
E|-3~---3~---1~--------3~---3~---1~--------3~---3~---1~-----|
B|-3~---3~---1~---555--3~---3~---1~---555--3~---3~---1~-----|
G|-4~---3~---2~---555--4~---3~---2~---555--4~---3~---2~-----|
D|-5~---5~---3~---555--5~---5~---3~---555--5~---5~---3~-----|
A|-5~---5~---3~---333--5~---5~---3~---333--5~---5~---3~-----|
E|-3~---3~---1~--------3~---3~---1~--------3~---3~---1~-----|
Composição de M. Kennedy / S. Hudson
Colaboração e revisão:
  • Alex Fonseca
  • Matheus
11.636 exibições
    • ½ Tom
    • A
    • Bb
    • B
    • C
    • Db
    • D
    • Eb
    • E
    • F
    • F#
    • G
    • Ab
  • Adicionar à lista

    0 comentários

    Ver todos os comentários
    00:00 / 00:00
    outros vídeos desta música
    repetir qualidade Automático
    Outros vídeos desta música
    00:00 / 00:00
    Automático

    Cifra Club Pro

    Aproveite o Cifra Club com benefícios exclusivos e sem anúncios
    Cifra Club Pro
    Aproveite o Cifra Club com benefícios exclusivos e sem anúncios
    OK