Cifra Club

Aprenda

Fix

Slash

Cifra: Principal (violão e guitarra)
Já pensou em usar uma coleção de roupas do Cifra Club? Responda as perguntas abaixo e nos ajude nessa missão! →
tom: D
(intro)
E|----11^13---11^13---11--10--8-----6--8--8^10^8--6------------------------
B|-----------------------------------------------------------8^10^8--------
G|-------------------------------------------------------------------------
D|-------------------------------------------------------------------------
A|-------------------------------------------------------------------------
E|-------------------------------------------------------------------------

E|--------------------------------------------------------------------------
B|--------------------------------------------------------------------------
G|-------------------------------------------------------------5-7-8--5-7-8-
D|----------------------------------------------5-6-8--5-6-8----------------
A|-----------------3-5-6--3-5-6--5-6-8--5-6-8-------------------------------
E|--3-4-6--3-4-6------------------------------------------------------------

E|----------------------------------------8-10-11--8-10-11--10-11-13--
B|---------------------8-9-11--8-9-11---------------------------------
G|--7-8-10--7-8-10----------------------------------------------------
D|--------------------------------------------------------------------
A|--------------------------------------------------------------------
E|--------------------------------------------------------------------

E|-10-11-13------------15----------------
B|------------------------15--18^20------
G|---------------------------------------
D|---------------------------------------
A|---------------------------------------
E|---------------------------------------

(riff principal)
E|-------------------------------------- |
B|-------------------------------------- |
G|-------------------------------------- |
D|--5------5-p-3--5--------5------------ |
A|--5----------------------5------------ |
E|--3------------------3---3------------ |

E|--18^20--------------------------------------------------------
B|-----------19-/-17-15-17-17^19-15~~~~~-------------------------
G|---------------------------------------------------------------
D|---------------------------------------------------------------
A|---------------------------------------------------------------
E|---------------------------------------------------------------
Colaboração e revisão:
  • Felipe Oliveira
3.094 exibições
    • ½ Tom
    • A
    • Bb
    • B
    • C
    • Db
    • D
    • Eb
    • E
    • F
    • F#
    • G
    • Ab
  • Adicionar à lista

    0 comentários

    Ver todos os comentários
    00:00 / 00:00
    outros vídeos desta música
    repetir qualidade Automático
    Outros vídeos desta música
    00:00 / 00:00
    Automático

    Cifra Club Pro

    Aproveite o Cifra Club com benefícios exclusivos e sem anúncios
    Cifra Club Pro
    Aproveite o Cifra Club com benefícios exclusivos e sem anúncios
    OK