Notificações Amigos pendentes

      Slash

      Ghost

      39.797 exibições
      Tom: G
      (intro)
      
      (drum break)
      
      (lead guitar)
      
      E|----------------------------------|
      B|-10----12----10----12----10p9-----|
      G|-----11----11----11----11-------9-| x10
      D|---9-----9-----9-----9--------9---|
      A|----------------------------------|
      E|----------------------------------|
      
      
      (rhythm guitar) (on the third measure)
      
      E|--------------------------------------------------------------------| |
      B|--------------------------------------------------------------------| |
      G|-4------------------------------------------------------------------| |
      D|-4----------------------------------2-------------------------------| |
      A|-2----------------------------------2-------------------------------| |
      E|------------------------------------0-------------------------------| |
                                                                              | x2
      E|--------------------------------------------------------------------| |
      B|--------------------------------------------------------------------| |
      G|-2------------------------------------------------------------------| |
      D|-2----------------------------------2-------------------------------| |
      A|-0----------------------------------2-------------------------------| |
      E|------------------------------------0-------------------------------| |
      
      
      Third guitar same as the (rhythm guitar (on the seventh measure)
      
      (lead guitar)
      
      E|--------------------------------------------------------------------|
      B|-10----12----10----12----10----12----10----12----10----12----12-12\-|
      G|-----11----11----11----11----11----11----11----11----11----11-------|
      D|---9-----9-----9-----9-----9-----9-----9-----9-----9-----9----------|
      A|--------------------------------------------------------------------|
      E|--------------------------------------------------------------------|
      
      
      (rhythm and Third guitar)
      
      E|---------------------------|
      B|---------------------------|
      G|-2h4-4-4-x-x-2h4-x-x-4---4-| x2
      D|-2h4-4-4-x-x-2h4-x-x-4---4-|
      A|-2---2-2-x-x-2---x-x-2---2-|
      E|---------------------------|
      
      
      (verse)
      (third guitar)
      
      E|--------|                                |
      B|--------|                                |
      G|--------|                                |
      D|-2------|                                |
      A|-2------|                                |
      E|-0------|                                |
                                                 |
      (rhythm guitar)                            |
      E|---------------------------|             |
      B|-5-5-5-5-x-x-5---x-x-5---5-|             |
      G|-4-4-4-4-x-x-4---x-x-4---4-| (4x)        |   (2x)
      D|-2-2-2-2-x-x-2---x-x-2---2-|             |
      A|---------------------------|             |
      E|---------------------------|             |
                                                 |
      (rhythm and Third guitar)                  |
      E|-------------------------------|         |
      B|-------------------------------|         |
      G|-2h4-4-4-x-x-2h4-4-4-x-x-2-----| (2x)    |
      D|-2h4-4-4-x-x-2h4-4-4-x-x-2---2-|         |
      A|-2---2-2-x-x-2---2-2-x-x-0---2-|         |
      E|---------------------------4-0-|         |
      
      
      (bridge)
      (rhythm and Third guitar)
      
      E|---------------3---------------------------5-------------|
      B|---------------3---------------------------5-------------|
      G|---------------4---------------------------6-------------|
      D|-5-------------5-------------7-------------7-------------|
      A|-5-------------5-------------7-------------7-------------|
      E|-3-------------3-------------5-------------5-------------|
      
      
      (lead guitar)
      
      E|------7---------------|
      B|---------10--7--10b12-|
      G|-9b11-----------------|
      D|----------------------|
      A|----------------------|
      E|----------------------|
      
      
      (chorus)
      (lead guitar)
      
      E|----------------------------------|
      B|-10----12----10----12----10p9-----|
      G|-----11----11----11----11-------9-| x8
      D|---9-----9-----9-----9--------9---|
      A|----------------------------------|
      E|----------------------------------|
      
      
      (rhythm guitar)
      
      E|--------------------------------------------------------------------| |
      B|--------------------------------------------------------------------| |
      G|-4------------------------------------------------------------------| |
      D|-4----------------------------------2-------------------------------| |
      A|-2----------------------------------2-------------------------------| |
      E|------------------------------------0-------------------------------| |
                                                                              | x2
      E|--------------------------------------------------------------------| |
      B|--------------------------------------------------------------------| |
      G|-2------------------------------------------------------------------| |
      D|-2----------------------------------2-------------------------------| |
      A|-0----------------------------------2-------------------------------| |
      E|------------------------------------0-------------------------------| |
      
      
      (lead guitar)
      
      E|--------------------------------------------------------------------|
      B|-10----12----10----12----10----12----10----12----10----12----12-12\-|
      G|-----11----11----11----11----11----11----11----11----11----11-------|
      D|---9-----9-----9-----9-----9-----9-----9-----9-----9-----9----------|
      A|--------------------------------------------------------------------|
      E|--------------------------------------------------------------------|
      
      
      (rhythm and Third guitar)
      
      E|---------------------------|
      B|---------------------------|
      G|-2h4-4-4-x-x-2h4-x-x-4---4-| x2
      D|-2h4-4-4-x-x-2h4-x-x-4---4-|
      A|-2---2-2-x-x-2---x-x-2---2-|
      E|---------------------------|
      
      
      (verse 2)
      
      (third guitar)
      
      E|--------|
      B|--------|
      G|--------|
      D|-2------|
      A|-2------|
      E|-0------|
      
      
      (rhythm guitar)
      
      E|---------------------------|
      B|-5-5-5-5-x-x-5---x-x-5---5-|
      G|-4-4-4-4-x-x-4---x-x-4---4-| x4
      D|-2-2-2-2-x-x-2---x-x-2---2-|
      A|---------------------------|
      E|---------------------------|
      
      
      (rhythm and Third guitar)
      
      E|-------------------------------|
      B|-------------------------------|
      G|-2h4-4-4-x-x-2h4-4-4-x-x-2-----| x2
      D|-2h4-4-4-x-x-2h4-4-4-x-x-2---2-|
      A|-2---2-2-x-x-2---2-2-x-x-0---2-|
      E|---------------------------4-0-|
      
      
      (bridge 2)
      
      (rhythm and Third guitar)
      
      E|---------------3---------------------------5-------------|
      B|---------------3---------------------------5-------------|
      G|---------------4---------------------------6-------------|
      D|-5-------------5-------------7-------------7-------------|
      A|-5-------------5-------------7-------------7-------------|
      E|-3-------------3-------------5-------------5-------------|
      
      
      (lead guitar)
      
      E|------7---------------|
      B|---------10--7--10b12-|
      G|-9b11-----------------|
      D|----------------------|
      A|----------------------|
      E|----------------------|
      
      
      (chorus 2)
      
      (lead guitar)
      
      E|----------------------------------|
      B|-10----12----10----12----10p9-----|
      G|-----11----11----11----11-------9-| x7
      D|---9-----9-----9-----9--------9---|
      A|----------------------------------|
      E|----------------------------------|
      
      
      E|----------------------------------|
      B|-10----12----10----12-------------|
      G|-----11----11----11---------------|
      D|---9-----9-----9------------------|
      A|----------------------------------|
      E|----------------------------------|
      
      
      (rhythm and Third guitar)
      
      E|--------------------------------------------------------------------|
      B|--------------------------------------------------------------------|
      G|-4------------------------------------------------------------------|
      D|-4----------------------------------2-------------------------------|
      A|-2----------------------------------2-------------------------------|
      E|------------------------------------0-------------------------------|
      
      
      E|--------------------------------------------------------------------|
      B|--------------------------------------------------------------------|
      G|-2------------------------------------------------------------------|
      D|-2----------------------------------2-------------------------------|
      A|-0----------------------------------2-------------------------------|
      E|------------------------------------0-------------------------------|
      
      
      E|--------------------------------------------------------------------|
      B|--------------------------------------------------------------------|
      G|-4------------------------------------------------------------------|
      D|-4----------------------------------2-------------------------------|
      A|-2----------------------------------2-------------------------------|
      E|------------------------------------0-------------------------------|
      
      
      E|--------------------------------------------------------------------|
      B|--------------------------------------------------------------------|
      G|-2------------------------------------------------------------------|
      D|-2--------------------------------------------------2-------3-------|
      A|-0--------------------------------------------------2-------3-------|
      E|----------------------------------------------------0-------1-------|
      
      
      (interlude)
      
      (rhythm and Third guitar)
      
      E|-------------------------------|
      B|-------------------------------|
      G|-------------------------------| x2
      D|-4-----4---4-4-----4-4-4-x-x-x-|
      A|-4---x-4-x-4-4---x-4-4-4-x-x-x-|
      E|-2---x---x---2---x---2-2-x-x-x-|
      
      
      E|--------------------------------------------------------------------|
      B|--------------------------------------------------------------------|
      G|-2-------------------------------4----------------------------------|
      D|-2-------------------------------4-------------------2------3-------|
      A|-0-------------------------------2-------------------2------3-------|
      E|-----------------------------------------------------0------1-------|
      
      
      E|-------------------------------|
      B|-------------------------------|
      G|-------------------------------| x2
      D|-4-----4---4-4-----4-4-4-x-x-x-|
      A|-4---x-4-x-4-4---x-4-4-4-x-x-x-|
      E|-2---x---x---2---x---2-2-x-x-x-|
      
      
      E|--------------------------------------------------------------------|
      B|--------------------------------------------------------------------|
      G|-2-------------------------------4-------------------4------5-------|
      D|-2-------------------------------4-------------------4------5-------|
      A|-0-------------------------------2-------------------2------3-------|
      E|--------------------------------------------------------------------|
      
      
      (lead guitar) (not quite shure for this part)
      
      E|----------------------------------------------------|
      B|--------------------------------------------------9-|
      G|----------------------------------------9----9h11---|
      D|--------------------9----9h11p9----9h11---11--------|
      A|-----7h9p7---7h9/11---11--------11------------------|
      E|-7h9-------9----------------------------------------|
      
      
      (solo)
      
      (lead guitar)
      
      E|-------------9------12----11-|
      B|-12b14----------12--12-------|
      G|-----------------------------|
      D|-----------------------------|
      A|-----------------------------|
      E|-----------------------------|
      
      
      E|-9--11--9h11p9----9----12-----9---------------|
      B|---------------12---12b14-12b14-12------------|
      G|-----------------------------------11b12r11p9-|
      D|----------------------------------------------|
      A|----------------------------------------------|
      E|----------------------------------------------|
      
      
      E|------------------9------------------------------|
      B|-------9-12------------9-------------------------|
      G|-11b13------11b13---12---12-11b12r11p9-11p9------|
      D|--------------------------------------------11p9-|
      A|-------------------------------------------------|
      E|-------------------------------------------------|
      
      
      E|--------------------------------------------|
      B|-9---------9--------------------------------|
      G|-9---------9--------------------------------|
      D|---11p9------11p9-----9---------------------|
      A|--------11--------11----11--9----9----------|
      E|------------------------------12----12--9\7-|
      
      
      E|------------------------------|
      B|------------------------------|
      G|------------------------------|
      D|-++++-------------------------|
      A|-9b11-----7------7----9p7-----|
      E|------------9-------------9p7-|
      
      
      E|---------------------------------------------|
      B|----------------9----11-11b12r11-9-----------|
      G|----------------9----11-11b12r11-9-11p9------|
      D|------9----9h11---11--------------------11p9-|
      A|-9/11---11-----------------------------------|
      E|---------------------------------------------|
      
      
      E|-------------------12----14b16-14b16-|
      B|-------12----12h14---(14)------------|
      G|-11/13----13-------------------------|
      D|-------------------------------------|
      A|-------------------------------------|
      E|-------------------------------------|
      
      
      E|-12----------12----/19---14h16-|
      B|----14-------------------------|
      G|-------------------------------|
      D|-------------------------------|
      A|-------------------------------|
      E|-------------------------------|
      
      
      E|-------------------9-----------12-|
      B|-17p14-----------9---12b14--------|
      G|-----------11b13------------------|
      D|----------------------------------|
      A|----------------------------------|
      E|----------------------------------|
      
      
      E|---------------------------------------------------|
      B|-9-8h9p8----8-------9-12-------9-------------------|
      G|---------11---11b13------11b12---12-11p9-11p9------|
      D|----------------------------------------------11p9-|
      A|---------------------------------------------------|
      E|---------------------------------------------------|
      
      
      (rhythm guitar)
      
      E|---------------------------------------------------------------|
      B|---------------------------------------------------------------|
      G|-6---6---6---6-------------------4---4---4---4-----------------| x2
      D|-6---6---6---6---4---4---4---4---4---4---4---4---4---4---4---4-|
      A|-4---4---4---4---4---4---4---4---2---2---2---2---4---4---4---4-|
      E|-----------------2---2---2---2-------------------2---2---2---2-|
      
      
      E|--------------------------|
      B|--------------------------|
      G|-6---6---6---6---6--------|
      D|-6---6---6---6---6--------|
      A|-4---4---4---4---4--------|
      E|--------------------------|
      
      
      (third guitar)
      
      E|---------------------------------------------------------------|
      B|---------------------------------------------------------------|
      G|-6-------------------------------4-----------------------------| x2
      D|-6---------------4---------------4---------------4-------------|
      A|-4---------------4---------------2---------------4-------------|
      E|-----------------2-------------------------------2-------------|
      
      
      E|--------------------------|
      B|--------------------------|
      G|-6---------6-6-6-6--------|
      D|-6---------6-6-6-6--------|
      A|-4---------4-4-4-4--------|
      E|--------------------------|
      
      
      (chorus 3)
      
      (lead guitar)
      
      E|----------------------------------|
      B|-10----12----10----12----10p9-----|
      G|-----11----11----11----11-------9-| x14
      D|---9-----9-----9-----9--------9---|
      A|----------------------------------|
      E|----------------------------------|
      
      
      (rhythm and Third guitar)
      
      E|--------------------------------------------------------------------| |
      B|--------------------------------------------------------------------| |
      G|-4------------------------------------------------------------------| |
      D|-4----------------------------------2-------------------------------| |
      A|-2----------------------------------2-------------------------------| |
      E|------------------------------------0-------------------------------| |
                                                                              | x3
      E|--------------------------------------------------------------------| |
      B|--------------------------------------------------------------------| |
      G|-2------------------------------------------------------------------| |
      D|-2----------------------------------2-------------------------------| |
      A|-0----------------------------------2-------------------------------| |
      E|------------------------------------0-------------------------------| |
      
      
      E|--------------------------------------------------------------------|
      B|--------------------------------------------------------------------|
      G|-4------------------------------------------------------------------|
      D|-4------------------------------------------------------------------|
      A|-2------------------------------------------------------------------|
      E|--------------------------------------------------------------------|
      
      
      E|--------------------------------------------------------------------|
      B|-2------------------------------------------------------------------|
      G|-2------------------------------------------------------------------|
      D|-2------------------------------------------------------------------|
      A|-2------------------------------------------------------------------|
      E|--------------------------------------------------------------------|
      
      
      ( D )
        Composição: Ian AstburyColaboração e revisão:
        • GustLopesUrbani

        Comentários 7

        140 .
        • Ricardinho Ricardinho: Em 12/03/2015 20:44

          facil pacas

        • gabriel.henriqueblend gabriel.henriqueblend: Em 30/07/2014 18:59

          video aula cifra club cade, essa musica é muito da hora

        • henzoeduardo henzoeduardo: Em 12/09/2013 22:09

          Pessoal ai do cifra, bora fazer a video aula dessa musica

        • detonator11 detonator11: Em 04/11/2012 11:14

          video aula , essa musica é muito boa, boa de mais

        • tiomigui tiomigui: Em 22/08/2012 22:01

          caara é foda mas eu ainda aprendo essa musica

        • lucaswater lucaswater: Em 04/06/2012 20:10

          por favor, façam a video aula dessa música! preciso aprender a toca-la para uma apresentação em agosto! vlw

        • igormoura igormoura: Em 10/11/2011 18:51

          video aula pleaseeee

        140 cancelar

        conseguiu tocar?

        • •••

        covers

        Grave um vídeo tocando Ghost e mande pra gente!

        Ex.: http://www.youtube.com/watch?v=0IvSvIwGdwk
        ver covers de outras músicas »
        0:00 / 0:00

        Capítulos

          1 versão de violão dificuldade exibições contribuição e correção
          1 versão de guitarra dificuldade exibições contribuição e correção
          1 versão de cavaco dificuldade exibições contribuição e correção
          1 versão de teclado dificuldade exibições contribuição e correção
          1 versão de baixo exibições contribuição e correção
          1 versão de Guitar Proformatodownloadscontribuição
          play/pausefechar subir/descer velocidade
          6ª corda E5ª corda A4ª corda D3ª corda G2ª corda B1ª corda E
            acordes
            publicidade
            fechar
            ok