Cifra Club

Aprenda

Hard And Fast

Slash

Cifra: Principal (violão e guitarra)
Já pensou em usar uma coleção de roupas do Cifra Club? Responda as perguntas abaixo e nos ajude nessa missão! →
tom: F# (forma dos acordes no tom de G) Afinação: Eb Ab Db Gb Bb Eb
Intro
E|--12--12----12-----------15-15-------------------12-12-15-12----------15---|
B|--12-----12--------------15-15-------------------12-12-15-12----------15---|
G|---------------14-12-----------14br-12-14-12-14--------------14-12---------|
D|---------------------14--------------------------------------------14------|
A|---------------------------------------------------------------------------|
E|---------------------------------------------------------------------------|

Main Riff
E|----------------------------------------|
B|----------------------------------------|
G|----------------------------------------|
D|--5/7-7-5-----------5/7-5---------------|
A|----------7-5-3-0---------7-0-5-0-3-----|
E|----------------------------------------|

Verse
E|-----------------------------|
B|-----------------------------|
G|-----------------------------|
D|--7--7-5--7--5-7--7-5--7--5--|
A|--5--5-3--5--3-5--5-3--5--3--|
E|-----------------------------|

Pre-chorus
E|--------------------------------------------------------------|
B|--------------------------------------------------------------|
G|--------------------------------------------------------------|
D|--------------------------------------------------------------|
A|--5/7-7-5-----------5/7-5------------5/7-7-5----------5/7/----|
E|----------7-5-3-0---------7-0-5-0-3----------7-5-3-0----------|

Chorus
E|-----|-----|-----|-------------------|
B|-----|-----|-----|-------------------|
G|-----|-----|-----|-------------------|
D|--2--|--5--|--7--|--8--7---7-5-------|
A|--0--|--3--|--5--|--6--5-0-5-3-0-----|
E|-----|-----|-----|-------------------|

E|-----|-----|-----|-------------------|
B|-----|-----|-----|-------------------|
G|-----|-----|-----|-------------------|
D|--2--|--5--|--7--|-------------------|
A|--0--|--3--|--5--|--*6-*5--*6-*5-----|
E|-----|-----|-----|-------------------|

E|-----|-----|-----|-----------------|-----|-----|-----|
B|-----|-----|-----|-----------------|-----|-----|-----|
G|-----|-----|-----|-----------------|-----|-----|-----|
D|--2--|--5--|--7--|--8--7---7-3-----|--5--|--7--|--2--|
A|--0--|--3--|--5--|--6--5-0-5-3-0---|--3--|--5--|--0--|
E|-----|-----|-----|-----------------|-----|-----|-----|

During the solo
E|-----|-----|-----|-------|     |-------------------|     |------------------|
B|-----|-----|-----|-------|     |-------------------|     |------------------|
G|-----|-----|-----|-------|     |-------------------|     |--7--7------------|
D|-----|-----|-----|-------|     |--2--2-----2-4-2---|     |--6--6------------|
A|--2--|--2--|--2--|-------|     |--0--0-3-4-----0---|     |--7--7-5----------|
E|--0--|--0--|--0--|--17/--|     |-------------------|     |---------7-5/3-0--|

E|-----|-----|-----|-----------------|
B|-----|-----|-----|-----------------|
G|-----|-----|-----|-----------------|
D|--5--|--7--|--9--|-----------------|
A|--3--|--5--|--7--|--2--3--4--5--6--|
E|-----|-----|-----|--0--1--2--3--4--|

Chorus - Outro
E|-----|-----|-----|-------------------|
B|-----|-----|-----|-------------------|
G|-----|-----|-----|-------------------|
D|--2--|--5--|--7--|--8--7---7-5-------|
A|--0--|--3--|--5--|--6--5-0-5-3-0-----|
E|-----|-----|-----|-------------------|

E|-----|-----|-----|-------------------|
B|-----|-----|-----|-------------------|
G|-----|-----|-----|-------------------|
D|--2--|--5--|--7--|-------------------|
A|--0--|--3--|--5--|--*6-*5--*6-*5-----|
E|-----|-----|-----|-------------------|

E|-----|-----|-----|-----------------|-----|-----|---------------------|-----|-----|
B|-----|-----|-----|-----------------|-----|-----|---------------------|-----|-----|
G|-----|-----|-----|-----------------|-----|-----|---------------------|-----|-----|
D|--2--|--5--|--7--|--8--7---7-3-----|--5--|--7--|--5/7--5-------------|--5--|--7--|
A|--0--|--3--|--5--|--6--5-0-5-3-0---|--3--|--5--|----------6b7-6-6-5--|--3--|--5--|
E|-----|-----|-----|-----------------|-----|-----|---------------------|-----|-----|

Composição de M. Kennedy / S. Hudson
Colaboração e revisão:
  • Eduardo
1.598 exibições
    • ½ Tom
    • A
    • Bb
    • B
    • C
    • Db
    • D
    • Eb
    • E
    • F
    • F#
    • G
    • Ab
  • Adicionar à lista

    0 comentários

    Ver todos os comentários
    00:00 / 00:00
    outros vídeos desta música
    repetir qualidade Automático
    Outros vídeos desta música
    00:00 / 00:00
    Automático

    Cifra Club Pro

    Aproveite o Cifra Club com benefícios exclusivos e sem anúncios
    Cifra Club Pro
    Aproveite o Cifra Club com benefícios exclusivos e sem anúncios
    OK