Cifra Club

Aprenda

Promise

Slash

Cifra: Principal (violão e guitarra)
tom: B (forma dos acordes no tom de C) Afinação: Eb Ab Db Gb Bb Eb
E|-----------------------|
B|-----------------------|
G|-----------------------|
D|-----------------------|
A|-6~-------------6~-5~--|
E|------8~---8~----------|

E|-----------------------
B|-----------------------
G|-----------------------
D|--6----6----5----------
A|--6----6----5----------
E|--4----4----3----------

E|----------------------------------------------------------------|
B|----------------------------------------------------------------|
G|----------------------------------------------------------------|
D|-----5-8-5-------------5---3-----------5---5b-------5-----------|
A|---6-------6-8-6---3-6---6---6-----3-6---6----6---6---6-8-5---5-|
E|-8---------------5-------------5-4--------------6-----------7---|

ou

E|------------------------------------------------------------------|
B|------------------------------------------------------------------|
G|-----0-3-0-------------0---------------0---1p0-------0------------|
D|---1-------1-3-1-----1---1-3-1-------1---1-----1---1---1-3-0---0--|
A|-3---------------0-3-----------0---3-------------1-----------2---3|
E|---------------------------------4--------------------------------|

E|-----------------------|
B|-----------------------|
G|-----------------------|
D|-----------------------|
A|--3~---6~---5~---6~----|
E|-----------------------|

E|----------------------------------------------------------------------------|
B|--------------------------------------------------6b8-6-5-6p5-6p5-----------|
G|--------------------------------------------5-7p5-----------------7b9-7b9r7-|
D|----3-x-5b~r5-3h5---3-----3---3h5p3-5p3-5/7---------------------------------|
A|-3b---------------5---3h5---5-----------------------------------------------|
E|----------------------------------------------------------------------------|

E|-------------10----------10----------------------------------------|
B|----------------13-13-------13----13----------------------------10-|
G|-6h7-7/12b14-------12b14-------12----12b14-10-12-------12-10h12----|
D|-------------------------------------------------10h12-------------|
A|-------------------------------------------------------------------|
E|-------------------------------------------------------------------|

E|-----------------------------------------------------|
B|-11-10h11-10--10h11h13--10h11p10--10h13p10--10h11h13-|
G|------------12--------12--------12--------12---------|
D|-----------------------------------------------------|
A|-----------------------------------------------------|
E|-----------------------------------------------------|

E|-10h12h13-10h13------------10h13p12p10--------------------|
B|---------------10h13p10--10-----------10h13p10--10-13b15--|
G|-----------------------12---------------------13----------|
D|----------------------------------------------------------|
A|----------------------------------------------------------|
E|----------------------------------------------------------|

Composição de Chris Cornell / Slash
Colaboração e revisão:
20.798 exibições
    • ½ Tom
    • A
    • Bb
    • B
    • C
    • Db
    • D
    • Eb
    • E
    • F
    • F#
    • G
    • Ab
  • Adicionar à lista

    0 comentários

    Ver todos os comentários
    00:00 / 00:00
    outros vídeos desta música
    repetir qualidade Automático
    Outros vídeos desta música
    00:00 / 00:00
    Automático

    Cifra Club Pro

    Aproveite o Cifra Club com benefícios exclusivos e sem anúncios
    Cifra Club Pro
    Aproveite o Cifra Club com benefícios exclusivos e sem anúncios
    OK