Cifra Club

Aprenda

Sahara

Slash

Cifra: Principal (violão e guitarra)
tom: D
(fig 1. repeat 4x)
E|--------------------------------------------------|R
B|--------------------------------------------------|E
G|----------^4-4-2---------2------------------------|P x4
D|--2-4--4----------4-2-4-4---4---------------------|E
A|--------------------------------------------------|A
E|--------------------------------------------------|T

(fig 2. repeat 8x)
E|--------------------------------------------------|R
B|--------------------------------------------------|E
G|--------------------------------------------------|P x8
D|--2-2p0--2-2p0------------------------------------|E
A|---------------2p0-h2-----------------------------|A
E|----------------------3p0-------------------------|T

(fig 3 repeat 2x)
E|--------------------------------------------------|R
B|--------------------------------------------------|E
G|--------------------------------------------------|P x2
D|--2h4--4p2-4p2---------4---6p4-2------------------|E
A|---------------4-2 4/6---6-------4----------------|A
E|--------------------------------------------------|T

(fig 4 repeate 2x)

E|--------------------------------------------------|R
B|--------------------------------------------------|E
G|--------------------------------------------------|P x2
D|--5h7--7p5-7p5---------7---9p7-5------------------|E
A|---------------7-5 7/9---9-------7----------------|A
E|--------------------------------------------------|T

(fig 5 repeate 2x)
E|--------------------------------------------------|R
B|--------------------------------------------------|E
G|--------------------------------------------------|P  x2
D|--7h9--9p7-9p7----------9----11p9--7--------------|E
A|---------------9-7 9/11---11----------9-----------|A
E|--------------------------------------------------|T

(fig 6)
E|--------------------------------------------------|
B|--------------------------------------------------|
G|--------------------------------------------------|
D|--9p7------7--------------------------------------|
A|-------7h9---9------------------------------------|
E|--------------------------------------------------|

(repete tudo)
Composição de Koshi Inaba / Slash
Colaboração e revisão:
  • Gustavo Lopes
3.915 exibições
    • ½ Tom
    • A
    • Bb
    • B
    • C
    • Db
    • D
    • Eb
    • E
    • F
    • F#
    • G
    • Ab
  • Adicionar à lista

    0 comentários

    Ver todos os comentários
    00:00 / 00:00
    outros vídeos desta música
    repetir qualidade Automático
    Outros vídeos desta música
    00:00 / 00:00
    Automático

    Cifra Club Pro

    Aproveite o Cifra Club com benefícios exclusivos e sem anúncios
    Cifra Club Pro
    Aproveite o Cifra Club com benefícios exclusivos e sem anúncios
    OK