Cifra Club

Aprenda

Shadow Life

Slash

Cifra: Principal (violão e guitarra)
tom: Eb (forma dos acordes no tom de E) Afinação: Eb Ab Db Gb Bb Eb
[Intro]

E|---------------------------------------------------------------------------|
B|---------5-4--------------5-4--------------5-4-----------------------------|
G|-----6-------6--------4-------4-------6----------------5-------5-----------|
D|---6---6------------6---6-------6---7---7------------6---6---6---6---------| 2x
A|-4--------------------------------0------------------------3---------------|
E|---------------0--------------------------------5-4------------------------|

E|----------|
B|----------|
G|-----4----|
D|-2---4----|
A|-2---2----|
E|-0--------|

[Riff]

E|-------------------------------------------------------------------|
B|-------------------------------------------------------------------|
G|-------------------------------------------------------------------|
D|-------------------------------------------------------------------|
A|-4-3---2----------4-3---2----------4-3---2----------4-3---2--7-----|
E|-----4----2-2-3h4-----4----2-2-3h4-----4----2-2-3h4-----4---5------|

E|-------------------------------------------------------------------|
B|-------------------------------------------------------------------|
G|----------------------------------------------------------------6--|
D|-11-10--9----------11-10--9---------11-10--9-----------11-11-9--6--|
A|------11-9-9-10h11------11-9-9-10h11-----11-9-10-11-10----9--7--4--|
E|-------------------------------------------------------------0-----|

[Verso]

E|--------------------------------------------------------------------|
B|-------------------------------------------9------------------------|
G|--------------------------------------2-4--9------------------------|
D|--------------------------------------2-4--9------------------------|
A|-4-2-----2-2-----4-2-----4-4---4-2----0-2-----4s-----| X--X-----------|
E|-----3-0-0-0---------3-0-2-2-------3-5------------------------------|

E|--------------------------------------------------------------------|
B|--------------------------------------------------------------------|
G|--------------------------------------2-4-4-------------------------|
D|--------------------------------------2-4-4-------------------------|
A|-4-2-----2-2-----4-2-----4-4---4-2----0-2-2-------------------------|
E|-----3-0-0-0---------3-0-2-2-------3-5------------------------------|

E|--------------------------------------------------------------------|
B|--------------------------------------------------------------------|
G|--------------------------------------2-4-4-------------------------|
D|--------------------------------------2-4-4-------------------------|
A|-4-2-----2-2-----4-2-----4-4---4-2----0-2-2-------------------------|
E|--------------------------------------------------------------------|

[Pré-Refrão]

E|-------------------------------------------------2-2--2--2-2--------|
B|-------------------------------------------------2-2--2--2-2--------|
G|--2-2-2-2-2-2---2-4-4-4-4-4---4-6-6-6-6-6-6-6-6--3-3--3--3-3--2-2-2-|
D|--2-2-2-2-2-2-| X-2-4-4-4-4-4-X-4-6-6-6-6-6-6-6-6--4-4--4--4-4--2-2-2-|
A|--0---0---0---| X-0-2---2---2-X-2-4-4-4-4-4-4-4-4--4-4--4--4-4--0-0-0-|
E|-------------------------------------------------2-2--2--2-2--------|

E|--------------------------------------------------------------------|
B|---------4-4-4-4----------------------------------------------------|
G|--2-4b-2-4-4-4-4----------------------------------------------------|
D|--2------4-4-4-4----------------------------------------------------|
A|--0------2-2-2-2----------------------------------------------------|
E|--------------------------------------------------------------------|

[Refrão]

E|--------------------------------------------------------------------|
B|------5-4----------5-4-------------5-4-------------5-4--------------|
G|--6--6----6-----4------4-----6-6-------6-----5-5-------5------------|
D|---6--------6-6---6------6-7-----7-------7-6-----6------------------|
A|--------------------------------------------------------------------|
E|--------------------------------------------------------------------|

E|--------------------------------------------------------------------|
B|-5-5------5-4-----5-5------5-4-------------5-4----------------------|
G|-6-6-----6----6---4-4---4------4-----6-6-------6-------6h4----------|
D|-6-6---6--------6-6-6-6----------6------7-------7-6-4h6----4--------|
A|--------------------------------------------------------------------|
E|--------------------------------------------------------------------|

[Riff]

E|-------------------------------------------------------------------|
B|-------------------------------------------------------------------|
G|----------------------------------------------------------------6--|
D|-11-10--9----------11-10--9---------11-10--9-----------11-11-9--6--|
A|------11-9-9-10h11------11-9-9-10h11-----11-9-10-11-10----9--7--4--|
E|-------------------------------------------------------------0-----|
Composição de M. Kennedy / S. Hudson / Todd Kerns
Colaboração e revisão:
  • elber andre
  • Ricardo Vilela
3.792 exibições
    • ½ Tom
    • A
    • Bb
    • B
    • C
    • Db
    • D
    • Eb
    • E
    • F
    • F#
    • G
    • Ab
  • Adicionar à lista

    0 comentários

    Ver todos os comentários
    00:00 / 00:00
    outros vídeos desta música
    repetir qualidade Automático
    Outros vídeos desta música
    00:00 / 00:00
    Automático

    Cifra Club Pro

    Aproveite o Cifra Club com benefícios exclusivos e sem anúncios
    Cifra Club Pro
    Aproveite o Cifra Club com benefícios exclusivos e sem anúncios
    OK