Cifra Club

Aprenda

Stone Blind

Slash

Cifra: Principal (violão e guitarra)
Já pensou em usar uma coleção de roupas do Cifra Club? Responda as perguntas abaixo e nos ajude nessa missão! →
tom: F# (forma dos acordes no tom de G) Afinação: Eb Ab Db Gb Bb Eb
Intro:
Eb|---------------------------------------------|
Bb|-----2---1-------------1---0-----------------|
Gb|---2---2---2---------2---2---2---------------|
Db|-------------------0-------------------------|
Ab|-0-----------3b3.5---------------------------|
Eb|------------------------------3b.5-----------|

Eb|-----------------------------------------------|
Bb|-----------------------------------------------|
Gb|-----------------------------------------------|
Db|-2-2-2-2-2-2-2-2-2-2-2-5-----------------------|
Ab|-0-0-0-0-0-0-0-0-0-0-0-3-2-5-------------------|
Eb|-------------------------0-3-------------------|
    PM--------------------------------------------|

Riff refrão:
Eb|----------------------------------------------|
Bb|-----------------3----------------------------|
Gb|-----------------2----------------------------|
Db|-2---------------0----------------------------|
Ab|-0-0-4p0-3p0-------0-3p0-2--------------------| 3x
Eb|-------------2-3-----------2-3-4--------------|

Eb|----------------------------------------------|
Bb|-----------------3----------------------------|
Gb|-----------------2----------------------------|
Db|-2---------------0----------------------------|
Ab|-0-0-4p0-3p0-------0-3p0-2---0-1--------------| 
Eb|-------------2-3-----------3------------------|

Verso:
Eb|---------------------------------------------------------------------------|
Bb|---------------------------------------------------------------------------|
Gb|----------------------------4----------------4-x-x-4-x-4-4-----------------|
Db|-4~-4-x-4-2-x-4-x-4-4-x-4-4-x----------------2-2-2-2-2-2-2-----------------|
Ab|-2~-2-2-2-0-2-2-2-0-2-2-2-0-5-x-x-5-x-5-5----------------------------------| 4x
Eb|----------------------------3-3-3-3-3-3-3-0--------------------------------|

Ponte:
Eb|---------------------------------------------------------------------------|
Bb|---------------------------------------------------------------------------|
Gb|---------------------------------------------------------------------------|
Db|-7-7-x-7-x-x-7-x-x-7-7/9-10-11-x-x-11-x-x-5-5-5-5-5\-----------------------|
Ab|-5-5-5-5-5-5-5-5-5-5-5/7-8--9--9-9-9--9-9-3-3-3-0-3\-----------------------| 
Eb|---------------------------------------------------------------------------|

Pré solo:
Eb|-----------------------------------------------|
Bb|-3--3---3---3---3------------------------------|
Gb|-2----0-------0-0-0---0------------------------|
Db|-0--------4-----0---3---3p2p0------------------|
Ab|----------------0-------------3----------------|
Eb|----------------3------------------------------|

Eb|---------------------------------------------------------------------------|
Bb|---------------------------------------------------------------------------|
Gb|---------------------------------------------------------------------------|
Db|-------------------------------------2-2-2-2-2-3-4-5-5-5-5-5-5-5-----------|
Ab|-5-5-5-5-5-3-----3-3---5-5-----5-5---0-0-0-0-0-1-2-3-3-3-3-3-3-3-----------|
Eb|-3-3-3-3-3-1-1-1-1-1-1-3-3-3-3-3-3-3---------------------------------------|
PM    ----|     --|           --|         ----|         ----------|

Solo: G  D
      E5  G  D

Outro:
Eb|----------------------------------------------|
Bb|-----------------3~---------------------------|
Gb|-----------------2~---------------------------|
Db|-2---------------0~-5-----2~-2\---------------|
Ab|-0-0-4p0-3p0--------3-----0~-0\---------------| 
Eb|-------------2-3------0-3---------------------|

Composição de M. Kennedy / S. Hudson
Colaboração e revisão:
  • Ricardo Vilela
747 exibições
    • ½ Tom
    • A
    • Bb
    • B
    • C
    • Db
    • D
    • Eb
    • E
    • F
    • F#
    • G
    • Ab
  • Adicionar à lista

    0 comentários

    Ver todos os comentários
    00:00 / 00:00
    Outros vídeos desta música
    Repetir Qualidade Automático
    Outros vídeos desta música
    00:00 / 00:00
    Automático

    Cifra Club Pro

    Aproveite o Cifra Club com benefícios exclusivos e sem anúncios
    Cifra Club Pro
    Aproveite o Cifra Club com benefícios exclusivos e sem anúncios
    OK