Cifra Club

The Godfather Theme

Slash

Cifra: Principal
exibições 290.054
Tom: F#
E|-----------------------------|
B|--15~-14-15-16-15-15---------|
G|-----------------------15~---|
D|-----------------------------|
A|-----------------------------|
E|-----------------------------|

E|-----------------------------|
B|--15~-14-15-16-15--15--------|
G|------------------------14~--|
D|-----------------------------|
A|-----------------------------|
E|-----------------------------|

E|--------------------------------------------------------------|
B|-15~-14-15-17b18-15-14-15b16~------------15b16----------------|
G|---------------------------------14b15---------14~~~~~--------|
D|--------------------------------------------------------------|
A|--------------------------------------------------------------|
E|--------------------------------------------------------------|

E|---10-13-12-10-13-10-12-10------------|
B|-10--------------------------11-13-10~|
G|--------------------------------------|
D|--------------------------------------|
A|--------------------------------------|
E|--------------------------------------|

E|---10-13-12-10-13-10-12-10------------|
B|-10--------------------------/10-9-8~-|
G|--------------------------------------|
D|--------------------------------------|
A|--------------------------------------|
E|--------------------------------------|

E|-------10-10/12------|---------9-9/10------|
B|-----6---------------|------6--------------|
G|--/8-----------------|--/8-----------------|
D|---------------------|---------------------|
A|---------------------|---------------------|
E|---------------------|---------------------|

E|------------------------------------------------------|
B|-10--10br---11br---10---10br--------------------------|
G|------------------------------10----------------------|
D|-----------------------------------11--12-------------|
A|------------------------------------------------------|
E|------------------------------------------------------|

E|---10-10-9--8~~----10/12--10----------|
B|-----------------------------11--10~~~|
G|--------------------------------------|
D|--------------------------------------|
A|--------------------------------------|
E|--------------------------------------|

E|--------------------------------------|
B|--10--10-9-8~~------10br--10p8-10~~~~-|
G|--------------------------------------|
D|--------------------------------------|
A|--------------------------------------|
E|--------------------------------------|

E|-12^11^9---12^11-9--13^12^10---/---/--/-------------------------|
B|-----------------------------11--11--11-11-9--11-9--8-9--11-9-8-|
G|----------------------------------------------------------------|
D|----------------------------------------------------------------|
A|----------------------------------------------------------------|
E|----------------------------------------------------------------|

E|-12-11-9--8-9--11-10-9----9-------------------------------------|
B|-----------------------10---10-12-10-9----9----12---------------|
G|---------------------------------------11---11----11-9----9-----|
D|-------------------------------------------------------11---11--|
A|----------------------------------------------------------------|
E|----------------------------------------------------------------|

E|--------------------------------9-10----------------------------|
B|--------13-11-10-13-10-11-10-10---------------------------------|
G|-----10---------------------------------------------------------|
D|-/12------------------------------------------------------------|
A|----------------------------------------------------------------|
E|----------------------------------------------------------------|

0 comentários

    mostrar mais comentários

    Conseguiu tocar?

    150tocaram2ainda não

    Grave um vídeo tocando The Godfather Theme e mande pra gente!

    00:00 / 00:00
    outros vídeos desta música
    repetirqualidadeautomática
    Outro vídeos desta música
      00:00 / 00:00
      automática
      OK