Cifra Club

Aprenda

The Godfather Theme

Slash

Cifra: Principal (violão e guitarra)
tom: F (forma dos acordes no tom de F#) Afinação: Eb Ab Db Gb Bb Eb
E|-----------------------------|
B|-----------------------------|
G|-----------------------------|
D|-----------------------------|
A|-------8b9~------------------|
E|--8-10-----10-8-10~~~--------|

E|------------------------10---|
B|---------------------10------|
G|------------------10---------|
D|---------------10------------|
A|-------8-10-12---------------|
E|--8-10-----------------------|

E|--13p12p10-12h13p12p10-------|
B|-----------------------------|
G|-----------------------------|
D|-----------------------------|
A|-----------------------------|
E|-----------------------------|

E|-----10----------------------|
B|--13----13b15~---------------|
G|-----------------------------|
D|-----------------------------|
A|-----------------------------|
E|-----------------------------|

E|--13-10----------------------|
B|--------13-------------------|
G|-----------12b13r12----------|
D|-----------------------------|
A|-----------------------------|
E|-----------------------------|
(Esse lick é feito 6x de acordo com quando o Slash faz)

E|--13-10----------------------|
B|--------13-13b15-------------|
G|-----------------------------|
D|-----------------------------|
A|-----------------------------|
E|-----------------------------|
(Esse lick é feito 5x de acordo com quando o Slash faz também)

E|--10-------13~---12h13-10----|
B|-----13-10----13-------------|
G|-----------------------------|
D|-----------------------------|
A|-----------------------------|
E|-----------------------------|

E|--10h12p10-------------------|
B|-----------13b15-------------|
G|-----------------11h13p11----|
D|-----------------------------|
A|-----------------------------|
E|-----------------------------|

E|-----------------------------------|
B|--10h11p10-------------------------|
G|-----------13-12h13p12h13-10----12-|
D|-----------------------------12----|
A|-----------------------------------|
E|-----------------------------------|

E|-----------------------------|
B|-----------------------------|
G|-----10~---------------------|
D|--12-------------------------|
A|-----------------------------|
E|-----------------------------|

E|-----------------------------|
B|--15~-14-15-16-15-15---------|
G|---------------------15~~~/--|
D|-----------------------------|
A|-----------------------------|
E|-----------------------------|

E|-----------------------------|
B|--15~-14-15-16-15-15---------|
G|---------------------14~~~/--|
D|-----------------------------|
A|-----------------------------|
E|-----------------------------|

E|---------------------------------------------------------------|
B|-15~-14-15-17~---15-14-15b17r15---14b15r14---------14b15r14----|
G|------------------------------------------14b15r14----------12~|
D|---------------------------------------------------------------|
A|---------------------------------------------------------------|
E|---------------------------------------------------------------|

E|---10-13-12-10-13-10-12-10------------|
B|-10------------------------11~h13-10~-|
G|--------------------------------------|
D|--------------------------------------|
A|--------------------------------------|
E|--------------------------------------|

E|---10-13-12-10-13-10-12-10------------|
B|-10-------------------------1/10-9-8~-|
G|--------------------------------------|
D|--------------------------------------|
A|--------------------------------------|
E|--------------------------------------|

E|-------10-10b12------| ---------9-9b10~~----|
B|--8-11---------------| ----8-11-------------|
G|---------------------| ---------------------|
D|---------------------| ---------------------|
A|---------------------| ---------------------|
E|---------------------| ---------------------|

E|-----------------------------------------------|
B|-10-10-10h11p10--11b13r11-10b11r10-------------|
G|-------------------------------------10--------|
D|----------------------------------------11-12~-|
A|-----------------------------------------------|
E|-----------------------------------------------|

E|---10-10-9-8~---12--8------------------------|
B|----------------------11-10-10b11r10b11r10---|
G|---------------------------------------------|
D|---------------------------------------------|
A|---------------------------------------------|
E|---------------------------------------------|

E|-----------------------------------------------------|
B|--8b10r9r8~~---10b11--10-8-10-10b11r10-10b11r10b11r10|
G|-----------------------------------------------------|
D|-----------------------------------------------------|
A|-----------------------------------------------------|
E|-----------------------------------------------------|

E|-12^11^9---12^11-9--13^12^10------------------------------------|
B|-----------------------------11--11--11-11-9--11-9--8-9--11-9-8-|
G|----------------------------------------------------------------|
D|----------------------------------------------------------------|
A|----------------------------------------------------------------|
E|----------------------------------------------------------------|

E|-12-11-9--8-9--11-10-9----9-------------------------------------|
B|-----------------------10---10-12-10-9----9----12---------------|
G|---------------------------------------11---11----11-9----9-----|
D|-------------------------------------------------------11---11--|
A|----------------------------------------------------------------|
E|----------------------------------------------------------------|

E|--------------------------------9-10----------------------------|
B|--------13-11-10-13-10-11-10-10---------------------------------|
G|-----10---------------------------------------------------------|
D|-/12------------------------------------------------------------|
A|----------------------------------------------------------------|
E|----------------------------------------------------------------|


Composição de Slash
312.258 exibições
    • ½ Tom
    • A
    • Bb
    • B
    • C
    • Db
    • D
    • Eb
    • E
    • F
    • F#
    • G
    • Ab
  • Adicionar à lista

    0 comentários

    Ver todos os comentários

    Conseguiu tocar?

    162 Tocaram 6 Ainda não

    Grave um vídeo tocando The Godfather Theme e nos envie!

    00:00 / 00:00
    outros vídeos desta música
    repetir qualidade Automático
    Outros vídeos desta música
    00:00 / 00:00
    Automático

    Cifra Club Pro

    Aproveite o Cifra Club com benefícios exclusivos e sem anúncios
    Cifra Club Pro
    Aproveite o Cifra Club com benefícios exclusivos e sem anúncios
    OK