Cifra Club

Aprenda

Voodoo Child

Slash

Cifra: Principal (violão e guitarra)
tom: D
E|-------------------------------------
B|-------------------------------------
G|--/9~--7---7-------------------------
D|---------9----5b~-5b~--7p5-----------
A|----------------------------5~-------
E|-------------------------------------

E|------------------------
B|------------------------
G|--/9---7-----9-9p7~~----
D|----------9-------------
A|------------------------
E|------------------------

E|-------------------------------------
B|-------------------------------------
G|--/9~--7---7-------------------------
D|---------9----5b~-5b~--7p5-----------
A|----------------------------5~-------
E|-------------------------------------

E|------------------------
B|------------------------
G|--/9---7-----9-9p7~~----
D|----------9-------------
A|------------------------
E|------------------------

E|-------------------------------------
B|-------------------------------------
G|--/9~--7---7-------------------------
D|---------9----5b~-5b~--7p5-----------
A|----------------------------5~-------
E|-------------------------------------

E|------------------------
B|------------------------
G|--/9---7-----9-9p7~~----
D|----------9-------------
A|------------------------
E|------------------------

E|-------------------------------------
B|-------------------------------------
G|--/9~--7---7-------------------------
D|---------9----5b~-5b~--7p5-----------
A|----------------------------5~-------
E|-------------------------------------

E|------------------------
B|------------------------
G|--/9---7-----9-9p7~~----
D|----------9-------------
A|------------------------
E|------------------------

E|--------------------------------------------------
B|--------------------------------------------------
G|--/9~---7-----7-----------------------------------
D|-----------9------5b~-5b~--7p5--------------------
A|-------------------------------7--5--7------------
E|----------------------------------------7--5/3~~--

Colaboração e revisão:
  • cesar vinicius
7.324 exibições
    • ½ Tom
    • A
    • Bb
    • B
    • C
    • Db
    • D
    • Eb
    • E
    • F
    • F#
    • G
    • Ab
  • Adicionar à lista

    0 comentários

    Ver todos os comentários
    00:00 / 00:00
    outros vídeos desta música
    repetir qualidade Automático
    Outros vídeos desta música
    00:00 / 00:00
    Automático

    Cifra Club Pro

    Aproveite o Cifra Club com benefícios exclusivos e sem anúncios
    Cifra Club Pro
    Aproveite o Cifra Club com benefícios exclusivos e sem anúncios
    OK