Cifra Club

Aprenda

Watch This

Slash

Cifra: Principal (violão e guitarra)
Já pensou em usar uma coleção de roupas do Cifra Club? Responda as perguntas abaixo e nos ajude nessa missão! →
tom: C
(intro)

E|-------------------| |-------------------|----------------------|
B|-------------------| |-------------------|----------------------|
G|-------------------| |-------------------|----------------------|
D|-------------------| |-------------------|----------------------|
A|-------------------| |-------------------|----------------------|
D|-0-12-10-0-12-9-0-8| |-0-12-10-0-12-9-0-8|-0-12-8-0-7-0-5-4>>>>>|

E|--------------------|-----------------|
B|--------------------|-----------------|
G|--------------------|-----------------|(4x - riff a)
D|---0-----0----------|---0-------------|
A|-----3-----2---1----|-----1---0-------|
D|-0-----0-----0------|-0-----0---0-5-4-|

E|--------------------|--------------------|
B|-10-8-10-7-11---8p7-|-10-8-10-7-11---8---|
G|-7--7-7--7-10---7---|-7--7-7--7-10---7---| (2x with riff a
D|--------------------|--------------------| being played w/palm muting)
A|--------------------|--------------------|
D|--------------------|--------------------|

E|-------------------|-------------------|
B|-------------------|----------------9b-|
G|-9b-7-7b---9b-7----|-9b-7-7b---9b-7----|
D|---------------(7)-|-------------------|
A|-------------------|-------------------|
D|-------------------|-------------------|
Composição de S. Hudson
Colaboração e revisão:
  • Daniel Celano
  • cesar souza
  • Lizandra
6.842 exibições
    • ½ Tom
    • A
    • Bb
    • B
    • C
    • Db
    • D
    • Eb
    • E
    • F
    • F#
    • G
    • Ab
  • Adicionar à lista

    0 comentários

    Ver todos os comentários
    00:00 / 00:00
    outros vídeos desta música
    repetir qualidade Automático
    Outros vídeos desta música
    00:00 / 00:00
    Automático

    Cifra Club Pro

    Aproveite o Cifra Club com benefícios exclusivos e sem anúncios
    Cifra Club Pro
    Aproveite o Cifra Club com benefícios exclusivos e sem anúncios
    OK