Cifra Club

Aprenda

Wicked Stone

Slash

Cifra: Principal (violão e guitarra)
Já pensou em usar uma coleção de roupas do Cifra Club? Responda as perguntas abaixo e nos ajude nessa missão! →
tom: Ab (forma dos acordes no tom de A) Afinação: Eb Ab Db Gb Bb Eb
Intro:
E|-2-0-2-5-4-0-2-0-|
B|-2-0-2-5-4-0-2-0-|
G|-----------------| 
D|-----------------| 
A|-----------------|
E|-----------------|

E|-------------------|
B|-------------------|
G|-------------------|
D|-------------------|
A|-4-2-1-0-1-0-------|
E|-------------2-0-2-|

Riff:
E|-----------------|   e|-----------------|
B|-----------------|   B|-----------------|
G|-----------------|   G|-------------2---|
D|-----------------|   D|-----------2--4--|
A|-----------------|   A|-4-2-0-2-4-------|
E|-2-0-2-5-4-0-2-0-|   E|-----------------|

E|-----------------|
B|-----------------|
G|-5------5/4----2-|
D|-5------5/4----2-| 3x
A|-3------3/2----0-|
E|-----------------|

E|----------------|
B|----------------|
G|-5------5-4-2-6-|
D|-5------5-4-2-6-|
A|-3------3-2-0-4-|
E|----------------|

Refrão: A
E|-------------------|
B|-------------------|
G|-------------------|
D|-------------------|
A|-9-7-9-12-11-7-9-7-|
E|-------------------|

E|--------------------------------------------------------|
B|--------------------------------------------------------|
G|------7----4----5-4-2--5-4-2------7----4----5-4-2-------|
D|-4----7----4----5-4-2--5-4-2-4----7----4----5-4-2--2--3-|
A|-4----5----2----3-2-0--3-2-0-4----5----2----3-2-0--2--3-|
E|-2---------------------------2---------------------0--1-|

Ponte: F#m  E  C  D  E

Refrão:
E|--------------------------------------------------------|
B|--------------------------------------------------------|
G|-6----2----------------------6----2----------------9-10-|
D|-6----2----4----5-4-2--5-4-2-6----2----4----5-4-2--9-10-|
A|-4----0----4----5-4-2--5-4-2-4----0----4----5-4-2--7-8--|
E|-----------2----3-2-0--3-2-0-----------2----3-2-0-------|

E|-------------------|
B|-------------------|
G|-------------------|
D|-------------------|
A|-4-2-4-7-6-2-4-2---|
E|-------------------|
Composição de M. Kennedy / S. Hudson
Colaboração e revisão:
  • Ricardo Vilela
2.028 exibições
    • ½ Tom
    • A
    • Bb
    • B
    • C
    • Db
    • D
    • Eb
    • E
    • F
    • F#
    • G
    • Ab
  • Adicionar à lista

    0 comentários

    Ver todos os comentários
    00:00 / 00:00
    outros vídeos desta música
    repetir qualidade Automático
    Outros vídeos desta música
    00:00 / 00:00
    Automático

    Cifra Club Pro

    Aproveite o Cifra Club com benefícios exclusivos e sem anúncios
    Cifra Club Pro
    Aproveite o Cifra Club com benefícios exclusivos e sem anúncios
    OK