Cifra Club

Aprenda

World On Fire

Slash

Cifra: Principal (violão e guitarra)
Já pensou em usar uma coleção de roupas do Cifra Club? Responda as perguntas abaixo e nos ajude nessa missão! →
tom: F (forma dos acordes no tom de F#) Afinação: Eb Ab Db Gb Bb Eb
-------------------------------------------------------------------------------
                             WORLD ON FIRE - Slash
-------------------------------------------------------------------------------

Tuning: Half-Step Down

Main Riff:

Eb|--------------------------------------------------------------------------------5-------|
Bb|-7h8-------8-------7h8~---------------------------------------------------------5-------|
Gb|-7h9-------9-------7h9~-9-7h8p7s5-7-5-------------------------------------5-7-----7-5---|
Db|-7---------7-------7~-----------------7-5--5h7---------7-----------5h7--7-------------7-|
Ab|-----0-0-0---0-0-0-------------------------0---0-0-0-0-0---0-0-0-0-0--------------------|
Eb|----------------------------------------------------------------------------------------|
        PM--|   PM--|                             PM----|     PM----|

Verse Riff:

Eb|---------------|--------------------------------------------------------------------|
Bb|---------------|--------------------------------------------------------------------|
Gb|-------4-------|--------------------------------------------------------------------|
Db|---5-7---7-5---|--------------------------------------------------------------------|
Ab|-7-----------7-|-5-----5-----5-----7-5----------------------------------------------|
Eb|---------------|---0-0---0-0---0-0-----0-7-5-3-0-3-0-0-3-0-0-3-0-0-0-3-5-7-5-3-0----|
                   PM-------------------------------------------------------------|

Bridge:

Eb|---------------------------------------------------------------------------|
Bb|---------------------------------------------------------------------------|
Gb|---------------------------------------------------------------------------|
Db|-5-5-5-5-5-5-5-5-5-5-5-5-5-5-5---2-2---2-2---2-2---2-2---------------------|
Ab|-3-3-0-3-3-0-3-3-0-3-3-0-3-3-0---0-0---0-0---0-0---0-0---0-3-0-------------|
Eb|-------------------------------3-----3-----3-----3-----3-------3-----------|
    PM------------------------------------------------------------|

Eb|---------------------------------------------------------------------------|
Bb|---------------------------------------------------------------------------|
Gb|-------------------------------------------------------------7-------------|
Db|-5-5-5-5-5-5-5-5-5-5-5-5-5-5-5-5-7-7-7-7-7-7-7-7-4-4-4-4-4-4-7-------------|
Ab|-3-3-0-3-3-0-3-3-0-3-3-0-3-3-0-3-5-5-0-5-5-0-5-0-2-2-0-2-2-0-5-------------|
Eb|---------------------------------------------------------------------------|
    PM--------------------------------------------------------|

Chorus:

Eb|-----------------------------------------------------------------------------|
Bb|-----------------------------------------------------------------------------|
Gb|-9-9-----------------------------------9-9-----------------------------------|
Db|-9-9-x-----------7-x-5-5-x-7-x---------9-9-x-----------7-x-5-5-x-7-x-4-4-x-7-|
Ab|-7-7-x-9-x-5-5-x-5-x-3-3-x-5-x-7-x-5-x-7-7-x-9-x-5-5-x-5-x-3-3-x-5-x-2-2-x-5-|
Eb|-------7-x-3-3-x---------------5-x-3-x-------7-x-3-3-x-----------------------|

Eb|-----------------------------------------------------------------------------|
Bb|-----------------------------------------------------------------------------|
Gb|-9-9-----------------------------------9-9-----------------------------------|
Db|-9-9-x-----------7-x-5-5-x-7-x---------9-9-x---------------------------------|
Ab|-7-7-x-9-x-5-5-x-5-x-3-3-x-5-x-7-x-5-x-7-7-x-9-x-5-5-x-----------------------|
Eb|-------7-x-3-3-x---------------5-x-3-x-------7-x-3-3-x-----------------------|

Chorus End 1:

Eb|--------------------|
Bb|--------------------|
Gb|--------------------|
Db|-9-8-7~-7-6-4~-5-4--|
Ab|-7-6-5~-5-4-2~-3-2--|
Eb|--------------------|

Chorus End 2:


Eb|---------------------|
Bb|---------------------|
Gb|---------------------|
Db|-9-8-7~-7-6-5~-7-7---|
Ab|-7-6-5~-5-4-3~-5-5-0-|
Eb|---------------------|

Chorus End 3:

Eb|-------------------0-|
Bb|-------------------x-|
Gb|-------------------2-|
Db|-9-8-7~-7-6-5~-5-4-2-|
Ab|-7-6-5~-5-4-3~-3-2-0-|
Eb|---------------------|

Pre-Solo:

Eb|----------------------------------|
Bb|----------------------------------|
Gb|----------------------------------|
Db|-4-4-4-4-4-4-4-4-4-4-4-4-4-4-4-4--|
Ab|-2-2-0-2-2-0-2-2-0-2-2-0-2-0-0-0--| x3
Eb|----------------------------------|
    PM----------------------------|

Eb|----------------------------------|
Bb|----------------------------------|
Gb|----------------------------------|
Db|--4-4-4-5-5-5-6-6-6-7-7-7-8-8-9-9-|
Ab|--2-2-0-3-3-0-4-4-0-5-5-0-6-0-7-0-|
Eb|----------------------------------|

Solo (Base):

Eb|---------------------------|
Bb|---------------------------|
Gb|---------------------------|
Db|-------5-----------5--4/7--|
Ab|-2--5--3--7--2--5--3--2/5--| x2
Eb|-0--3-----5--0--3----------|

Eb|---------------------|
Bb|---------------------|
Gb|---------------------|
Db|-9-8-7~-7-6-4~-5-4-2~|
Ab|-7-6-5~-5-4-2~-3-2-0~|
Eb|---------------------|

Solo:

Eb|-0-------0-------0-------0-------0-------0-------0-------0-|
Bb|----0h3-----0h3-----0h3-----0h3-----0h3-----0h3-----0h3----|
Gb|-----------------------------------------------------------|
Db|-----------------------------------------------------------|
Ab|-----------------------------------------------------------|
Eb|-----------------------------------------------------------|

Eb|-7b10-7-6-5-----5----------------0---0-0-|
Bb|------------8-5---8b10--8--5p3---3/5-----|
Gb|-------------------------------4---------|
Db|-----------------------------------------|
Ab|-----------------------------------------|
Eb|-----------------------------------------|

Eb|----------------------------|----------------------------------------|
Bb|-----0------0------0------0-|-2/3--0h2h3--0h2h3----3/5--0h3h5--0h3h5-|
Gb|-3h4----3h4----3h4----3h4---|----------------------------------------|
Db|----------------------------|----------------------------------------|
Ab|----------------------------|----------------------------------------|
Eb|----------------------------|----------------------------------------|

Eb|-----------------------------------------------------------------|
Bb|-5/7--0h5h7--0h5h7----7/8--0h7h8--0h7h8/10-10b12r10h8-10-8-10b12-|
Gb|-----------------------------------------------------------------|
Db|-----------------------------------------------------------------|
Ab|-----------------------------------------------------------------|
Eb|-----------------------------------------------------------------|

Eb|-------12-------------12h15p12-------12-------------12h15p12-------12h15p12-------|
Bb|-15b17----15-12----------------15b17----15-12----------------15b17----------15b17-|
Gb|----------------14b16-------------------------14b16-------------------------------|
Db|----------------------------------------------------------------------------------|
Ab|----------------------------------------------------------------------------------|
Eb|----------------------------------------------------------------------------------|

Eb|-12-14-12h14p12----12-------12---------------------------12---------------------------------------|
Bb|----------------15----15b17----15-12h15p12------12----------15-12---------------------------------|
Gb|---------------------------------------------14----14b16----------14b16r14p12---------------------|
Db|------------------------------------------------------------------------------14--14p12-----------|
Ab|-----------------------------------------------------------------------------------------14p12-14-|
Eb|--------------------------------------------------------------------------------------------------|

Eb|-19b22r19-----17b19r17-----15b17r15---14b15r14b15--14--12-14-12h14p12----12--------------------------|
Bb|----------------------------------------------------------------------15----15b17-15--12-15-12h15p12-|
Gb|-----------------------------------------------------------------------------------------------------|
Db|-----------------------------------------------------------------------------------------------------|
Ab|-----------------------------------------------------------------------------------------------------|
Eb|-----------------------------------------------------------------------------------------------------|

Eb|-------------------------------|
Bb|-------------14b15r14b15r14~---|
Gb|-14b16r14-12-14b15r14b15r14~---|
Db|-------------------------------|
Ab|-------------------------------|
Eb|-------------------------------|

Structure:

Main Riff x4
Verse Riff x4
Bridge
Chorus (Chorus End 1)
Main Riff x2
Verse Riff x4
Bridge
Chorus (Chorus End 2)
Pre-Solo
Solo
Main Riff (first half) x4
Chorus x2 (Chorus End 3)


************************************

| /   slide up
| \   slide down
| h   hammer-on
| p   pull-off
| ~   vibrato
| +   harmonic
| x   Mute note
| b   Bend


| pb  Pre-bend
| br  Bend release
| pbr Pre-bend release
| brb Bend release bend                                                                                    

************************************
                                                                                                     Solo by: Darth Verde
Composição de Myles Kennedy / Slash
Colaboração e revisão:
  • Darth Verde
  • tiago peres
7.597 exibições
    • ½ Tom
    • A
    • Bb
    • B
    • C
    • Db
    • D
    • Eb
    • E
    • F
    • F#
    • G
    • Ab
  • Adicionar à lista

    0 comentários

    Ver todos os comentários
    00:00 / 00:00
    outros vídeos desta música
    repetir qualidade Automático
    Outros vídeos desta música
    00:00 / 00:00
    Automático

    Cifra Club Pro

    Aproveite o Cifra Club com benefícios exclusivos e sem anúncios
    Cifra Club Pro
    Aproveite o Cifra Club com benefícios exclusivos e sem anúncios
    OK