Cifra Club

Aprenda

You're a Lie

Slash

Cifra: Principal (violão e guitarra)
tom: Bb
Afinação: D A D G B E

Riff 1:
    C5      Eb5  F5  Eb5  D5
E|------------------------------|
B|------------------------------|
G|--5-/-8-----------------------| (3x)
D|--5-/-8----1----3---1----0----|
A|--3-/-6----1----3---1----0----|
D|-----------1----3---1----0----|

    Bb    F
E|----------------|
B|----------------|
G|--3-------------|
D|--3-----3-------|
A|--1-----3-------|
D|--------3-------|

Riff 2:
E|----------------------------------------------------------|
B|----------------------------------------------------------|
G|--10--10--8--8--------10--10--8--8----------10--10--8--8--|
D|---------------10--10---------------10--10----------------|
A|----------------------------------------------------------|
D|----------------------------------------------------------|

E|----------------------------------------------------|
B|----------------------------------------------------|
G|--8--8--7--7----------8--8--7--7--------8--8--7--7--|
D|---------------8--8---------------8--8--------------|
A|----------------------------------------------------|
D|----------------------------------------------------|

E|-------------------------------------------------------|
B|-------------------------------------------------------|
G|--10--10--8--8-------10--10--8--8--------10--10--8--8--|
D|---------------8--8----------------8--8----------------|
A|-------------------------------------------------------|
D|-------------------------------------------------------|

E|------------------------------------------------------------|
B|---8--8-----------------8--8------------------8--8----------|
G|---------10--10---------------10--10----------------10--10--|
D|----------------10--10----------------10--10----------------|
A|------------------------------------------------------------|
D|------------------------------------------------------------|

Riff 3:
E|----------------------------------------------------------|
B|--11--11--9--9---------11--11--9--9---------11--11--9--9--|
G|----------------8--8-----------------8--8-----------------| (2x)
D|----------------------------------------------------------|
A|----------------------------------------------------------|
D|----------------------------------------------------------|

E|---------------------------------------------------------------------|
B|--11--11--10--10-----------11--11--10--10-----------11--11--10--10---|
G|------------------10--10-------------------10--10--------------------|
D|---------------------------------------------------------------------|
A|---------------------------------------------------------------------|
D|---------------------------------------------------------------------|

E|--7--7--------------------------|
B|--------8--8--------------------|
G|--------------7--7--------------|
D|--------------------10--10--9~--|
A|--------------------------------|
D|--------------------------------|

Riff - Interlúdio:
    Eb5                                      F5
E|-------------------------------------------------------------------|
B|-------------------------------------------------------------4---4-|
G|------------------------------------------------3~-------------3---|
D|--6---------------6--------6---------------3--------5--3-----------|
A|--6---------------6--------6---------------3--------------5--------|
D|--6---6--6--6--6--6--6--6--6--3--5--3-/-1--3-----------------------|

    Eb5                                     F   G
E|----------------------------------------------------------------------|
B|----------------------------------------------------------------------|
G|----------------------------------------------------------------------|
D|--6---------------6--------6--------------3---5--5--5--5--5--5--5--5--|
A|--6---------------6--------6--------------3---5--5--5--5--5--5--5--5--|
D|--6---6--6--6--6--6--6--6--6--6--5--3--1--3---5--5--5--5--5--5--5--5--|

Intro: F5  C5  Ab5  Eb5  Gb5  F5+  Eb5  F5

(Riff 1 - 3x)

Verso:
            C5
You're the voice of reason
        B5+
That I can't escape
 Eb5                    F5
Cut me down a thousand times a day
         C5          B5+
I don't need you anymore
         Eb5         F5
I don't need you anymore

    (Riff 2)
I trusted you when there's no one else

All you did was make me doubt myself
 (Riff 2)
Don't believe you anymore

Don't believe you anymore

Pré-Refrão:
(Riff 3)
You bled me out, you tore me down

Your time has come, you can go

Refrão:
(Riff 1)
'Cause you are a liar, liar

All my fate was been wasted, wasted
(Riff 1)
'Cause you are a liar, liar

I don't need you to save me anymore

Verso:
 C5                    B5+
I'm a fragile but I'm not a fool
Eb5                   F5
I won't hear another word from you
(Riff 2)
You won't hurt me anymore

You won't hurt me anymore

(Riff 3)
The hand, the hand

That's held me down

It's hurt so long

Now I know

Refrão:
(Riff 1)
'Cause you are a liar, liar

All my fate was been wasted, wasted
(Riff 1)
'Cause you are a liar, liar

I won't sit here and take this anymore

Interlúdio:
(Riff - Interlúdio)
You can say anything that you wanna say

But my attention is long gone and turned away

You're such a lie, you're already the enemy

Everything you are I will deny!

Solo: C5  G5  Eb5  F (3x)
      C5  G5  Eb5  B5  F
      Gb5  F5  G5

(Riff 1)

Refrão:
(Riff 1)
'Cause you are a liar, liar

I'm just coming to say it, say it
(Riff 1)
'Cause you are a liar, liar

All my fate has been wasted, wasted

(Riff 1)
'Cause you are a liar, liar

I don't need you to save me anymore
(Riff 2 - 2x)
I don't need you to save me anymore
                                C5
I don't need you to save me anymore
Composição de M. Kennedy / S. Hudson
Colaboração e revisão:
  • Gustavo Lacerda
15.778 exibições
    • ½ Tom
    • A
    • Bb
    • B
    • C
    • Db
    • D
    • Eb
    • E
    • F
    • F#
    • G
    • Ab
  • Adicionar à lista

    0 comentários

    Ver todos os comentários
    00:00 / 00:00
    outros vídeos desta música
    repetir qualidade Automático
    Outros vídeos desta música
    00:00 / 00:00
    Automático

    Cifra Club Pro

    Aproveite o Cifra Club com benefícios exclusivos e sem anúncios
    Cifra Club Pro
    Aproveite o Cifra Club com benefícios exclusivos e sem anúncios
    OK