Cifra Club

Black Magic

Slayer

Cifra: Principal (violão e guitarra)
Tom: D
E|-------------------------------------------------------------------------|
B|-------------------------------------------------------------------------|
G|-------------------------------------------------------------------------|
D|--------------------------------------X4---------------------------------|
A|-------7~------7-8---7-8-10-8--8-7---------------------------------------|
E|--0000----0000-----0---------10------------------------------------------|

E|-------------------------------------------------------------------------|
B|-------------------------------------------------------------------------|
G|-------------------------------------------------------------------------|
D|-------9-----9/10-------9------5/7----X---------------------------------|
A|-------7-----7/8--------7------3/5---------------------------------------|
E|--0000---0000------0000---0000-------------------------------------------|

Verso:
E|-------------------------------------------------------------------------|
B|-------------------------------------------------------------------------|
G|-------------------------------------------------------------------------|
D|--9------9-9-10-9-------12-11-10-9------9-9-10-9-------------------------|
A|--7------7-7-8--7-------10-9--8--7------7-7-8--7--------5-4-3-2----------|
E|----0000----------0000-------------0000-----------0000--3-2-1-0----------|


  "spells surround me day and night striken by the force of....
E|-------------------------------------------------------------------------|
B|-------------------------------------------------------------------------|
G|-------------------------------------------------------------------------|
D|-------------------------------------------------------------------------|
A|--4444-6666---1111--22222------------------------------------------------|
E|-------------------------------------------------------------------------|


"fighting the curse...(see lyrics at end of tab)
E|-------------------------------------------------------------------------|
B|--------11-11--8---------------------------------------------------------|
G|--------9--9---7----X4---------------------------------------------------|
D|--------7--7---5---------------------------------------------------------|
A|-7777--------------------------------------------------------------------|
E|-------------------------------------------------------------------------|


Pré-refão:
E|-------------------------------------------------------------------------|
B|-------------------------------------------------------------------------|
G|-------------------------------------------------------------------------|
D|-------------------9-10-------------------9/10-10------------------------|
A|-------------------7-8--------------------7/8--8-------------------------|
E|-0-000-0-000-0-000------0-000-0-000-0-000--------------------------------|

E|-------------------------------------------------------------------------|
B|-------------------------------------------------------------------------|
G|-------------------------------------------------------------------------|
D|--9-9-9-10-9-12~---------------------------------------------------------|
A|--7-7-7-8--7-10~------------2--------------------------------------------|
E|----------------------------0--------------------------------------------|


exibições 19.581
Acordes para:
    Composição: Jeff Hanneman / Kerry King Colaboração e revisão:
    • Luiz Ramos

    0 comentários

    mostrar mais comentários

    Conseguiu tocar?

    7 tocaram 0 ainda não

    Grave um vídeo tocando Black Magic e mande pra gente!

    00:00 / 00:00
    outros vídeos desta música
    repetir qualidade Automático
    Outros vídeos desta música
    00:00 / 00:00
    Automático
    OK