Cifra Club

Filler

Slayer

Cifra: Principal (violão e guitarra)
tom: Db
.  - palm mute                  /  - slide up to
\  - slide down to              ~  - vibrato             
h  - hammer on                  b  - bend 
p  - pull off                        Suffixes for bend    
ph - pinch harmonic                      f - full bend    h - half bend
*  - see comment                         r - release      t - tap bend
X  - percussion mute                     ~ - vibrato bend
@  - slight palm mute           () - ghost note, sustained note

Tuning: Eb(Eb,Ab,Db,Gb,Bb,Eb)                  

This is really two fast songs.
I´ve just played guitar for 2 years now, so this might not be so good tabbed.
If you just listen to the album you will learn to play the songs.

FILLER

Intro: bass   twice.

VERSE:
Eb|--------------------------------------------------------|
Ab|--------------------------------------------------------|
Db|--------------------------------------------------------|
Gb|-11-11-11-11-11-6-6-6-9---------------------------------|
Bb|-9--9--9--9--9--4-4-4-7-7-7-7---------------------------|
Eb|------------------------5-5-5---------------------------|

CHORUS: 2x
Eb|--------------------------------------------------------|
Ab|--------------------------------------------------------|
Db|--------------------------------------------------------|
Gb|-9--7--2------------------------------------------------|
Bb|-7--5--0--4---------------------------------------------|
Eb|----------2---------------------------------------------|

Verse
Chorus 2x
Solo
Verse 4x
Chorus 4x
I DON`T WANT TO HEAR IT
Intro: bass
Verse:   
      I Don´t wanna hear it  All you do is talk about you...
Eb|--------------------------------------------------------|
Ab|--------------------------------------------------------|
Db|--------------4-4-4-9-9-9-------------------------------|
Gb|--------------2-2-2-7-7-7-------------------------------|
Bb|-4-4---4-4-4--------------------------------------------|
Eb|-2-2-0-2-2-2--------------------------------------------|

Chorus:    
       I Don´t wanna hear it  I know you're full of shit... 
Eb|--------------------------------------------------------|
Ab|--------------------------------------------------------|
Db|--------------------------------------------------------|
Gb|--12-12--9----------------------------------------------|
Bb|--10-10--7-9-12-12-12-12-12-12--------------------------|
Eb|-----------7-10-10-10-10-10-10--------------------------|

Verse
Chorus
Verse
Chorus
00:00 / 00:00
Outros vídeos desta música
Repetir
Outros vídeos desta música
Composição de Brian Baker / Ian MacKaye / Jeff Nelson / Lyle Preslar
Colaboração e revisão:
  • Élison Duarte
537 exibições
    • ½ Tom
    • A
    • Bb
    • B
    • C
    • Db
    • D
    • Eb
    • E
    • F
    • F#
    • G
    • Ab
  • Adicionar à lista

    0 comentários

    Ver todos os comentários

    Conseguiu tocar?

    0 Tocaram 0 Ainda não

    Grave um vídeo tocando Filler e nos envie!

    00:00 / 00:00

    Cifra Club Pro

    Aproveite o Cifra Club com benefícios exclusivos e sem anúncios
    Cifra Club Pro
    Aproveite o Cifra Club com benefícios exclusivos e sem anúncios
    OK