Cifra Club

God Send Death

Slayer

Cifra: Principal (violão e guitarra)
Selo Cifra Club: esta cifra foi revisada para atender aos critérios oficiais da nossa Equipe de Qualidade.
tom: Bm
6=C# 3=E
5=F# 2=G#
4=B  1=C#


INTRO                    E|-------------------------------|___________________
gtr I                                    |1st time                |2nd time
E|------------------------------------------------------------------|-------------------------|
B|------------------------------------------------------------------|-------------------------|
G|------------------------------------------------------------------|-------------------------|
D|------------------------------------------------------------------|-------------------------|
A|-7-------7-------8-------10------7-------14------13-------8-------|-15------14------8-------|
E|-0-------0-------0-------0-------0-------0-------0--------0-------|-0-------0-------0-------|
E|--------------------------------------------------|
gtr II                                   |1st time                |2nd time (gtrs II & III)
E|------------------------------------------------------------------|-------------------------|
B|------------------------------------------------------------------|-------------------------|
G|------------------------------------------------------------------|-------------------------|
D|------------------------------------------------------------------|-------------------------|
A|------------------------------------------------------------------|-----------------5-4---3-|
E|------------------------------------------------------------------|-----------------3-2---1-|

gtr I
E|-----------------------------------------------------------------|
B|-----------------------------------------------------------------|
G|-----------------------------------------------------------------|
D|-----------------------------------------------------------------|
A|-7-------7-------8-------10------7-------14------6---5---3-------|
E|-0-------0-------0-------0-------0-------0-------4---3---1-------|
                                                         
gtr II                                                   
E|-----------------------------------------------------------------|
B|-----------------------------------------------------------------|
G|-----------------------------------------------------------------|
D|-----------------------------------------------------------------|
A|-2-----------------------------------------------6---5---3-------|
E|-0-----------------------------------------------4---3---1-------|

gtr I
E|-----------------------------------------------------------------|
B|-----------------------------------------------------------------|
G|-----------------------------------------------------------------|
D|-----------------------------------------------------------------|
A|-7-------7-------8-------10------6---5---3---5---6---10--9---6---|
E|-0-------0-------0-------0-------4---3---1---3---4---8---7---4---|
                                                         
gtr II                                                   
E|-----------------------------------------------------------------|
B|-----------------------------------------------------------------|
G|-----------------------------------------------------------------|
D|-----------------------------------------------------------------|
A|---------------------------------6---5---3---5---6---10--9---6---|
E|---------------------------------4---3---1---3---4---8---7---4---|



gtr I & II (gtr III plays whsound backside)
 P.M.__________________________________________________________________________________|
E|-------------------------------------------------------------------------------------------|
B|-------------------------------------------------------------------------------------------|
G|-------------------------------------------------------------------------------------------|
D|-------------------------------------------------------------------------------------------|
A|-2-2---2-2---2-2---2-2---2-2---2-2---2-2---2-2---2-2---2-2---2-2---2-2---2-2---2-2---2-2---|
E|-0-0---0-0---0-0---0-0---0-0---0-0---0-0---0-0---0-0---0-0---0-0---0-0---0-0---0-0---0-0---|



VERSERIFF ("On your back look on to me......")
 P.M._________________________________________________________|
E|-----------------------------------------------------------------|
B|-----------------------------------------------------------------|
G|-----------------------------------------------------------------|
D|-----------------------------------------------------------------| x3
A|-7---7---7---7---8---8---10--10--14--14--14--14--13--13--8---8---|
E|-0---0---0---0---0---0---0---0---0---0---0---0---0---0---0---0---|



 ("God send death end misery......")
 let ring.................................................
E|-----------------------------------------------------------------|
B|-----------------------------------------------------------------|
G|-----------------------------------------------------------------|
D|---------9-------------------------------9-------8---------------|
A|-7---------------8-------10------7-----------------------8-------|
(0)-0-0-(0)-0-0-(0)-0-0-(0)-0-0-(0)-0-0-(0)-0-0-(0)-0-0-(0)-0-0--


 let ring..................|
E|-----------------------------------------------------------------|
B|-----------------------------------------------------------------|
G|-----------------------------------------------------------------|
D|---------9-------------------------------10------9---------------|
A|-7---------------8-------10------7-----------------------8-------|
(0)-0-0-(0)-0-0-(0)-0-0-(0)-0-0-(0)----------------------6-------


CHORUSRIFF

E|---------------------------------|
B|---------------------------------|
G|---------------------------------|
D|-9----9-9---9------9-----8-------| x8
A|-7----7-7---7----7----------9-5--|
E|-0----0-0---0--------------------|


VERSERIFF
 P.M._________________________________________________________|
E|-----------------------------------------------------------------|
B|-----------------------------------------------------------------|
G|-----------------------------------------------------------------|
D|-----------------------------------------------------------------| x3
A|-7---7---7---7---8---8---10--10--14--14--14--14--13--13--8---8---|
E|-0---0---0---0---0---0---0---0---0---0---0---0---0---0---0---0---|

 let ring.................................................
E|-----------------------------------------------------------------|
B|-----------------------------------------------------------------|
G|-----------------------------------------------------------------|
D|---------9-------------------------------9-------8---------------|
A|-7---------------8-------10------7-----------------------8-------|
(0)-0-0-(0)-0-0-(0)-0-0-(0)-0-0-(0)-0-0-(0)-0-0-(0)-0-0-(0)-0-0--


 let ring..................|
E|-----------------------------------------------------------------|
B|-----------------------------------------------------------------|
G|-----------------------------------------------------------------|
D|---------9-------------------------------10------9---------------|
A|-7---------------8-------10------7-----------------------8-------|
(0)-0-0-(0)-0-0-(0)-0-0-(0)-0-0-(0)----------------------6-------



CHORUSRIFF
E|-------------------------------|
                |1-7th times     |8th time
E|---------------------------------|--------------|
B|---------------------------------|--------------|
G|---------------------------------|--------------|
D|-9----9-9---9------9-----8-------|--------------|
A|-7----7-7---7----7----------9-5--|-6--5--3------|
E|-0----0-0---0--------------------|-4--3--1------|


effect guitar 1 time (Plays: G   E   F A#  A)
then after little drumfill:

("Clawing at the eyes of god you taste your death in hand......")

 P.M._________________________________________________________|
E|-----------------------------------------------------------------|
B|-----------------------------------------------------------------|
G|-----------------------------------------------------------------|
D|-----------------------------------------------------------------| x4
A|-5---5---5---2---2---2---3---3---8---8---8---7---7---7---7---7---|
E|-3---3---3---0---0---0---1---1---6---6---6---5---5---5---5---5---|

 G           E           F              G# G  F  G  G# C  B  G#
E|-----------------------------------| -------------------------
B|-----------------------------------| -------------------------
G|-----------------------------------| -------------------------
D|-----------------------------------| x3 -------------------------
A|-5-----5-5---2-----2-----3---------| -6--5--3--5--6--10-9--6--
E|-3-----3-3---0-----0-----1---------| -4--3--1--3--4--8--7--4--


G  OPART
RIFF
 F#      C#      F#      C       F#      C#      A#      G
E|------------------------------------------------------------------|
B|------------------------------------------------------------------|
G|------------------------------------------------------------------|
D|------------------------------------------------------------------| x4
A|---------44444444--------33333333--------44444444-----------------|
E|-22222222--------22222222--------22222222--------6666666633333333-|


gtr I
   P.M._________
E|-----------------|
B|-----------------|
G|-----------------|
D|-----------------|
A|-4---------------|
-2-1-0-1-0-2-0-1-
                    x3
gtr II
E|-----------------|
B|-----------------|
G|-----------------|
D|-4---------------|
A|-4---------------|
E|-2---------------|

 F#       C#      G       A       F#      C#      A#      F
E|-------------------------------------------------------------------|
B|-------------------------------------------------------------------|
G|-------------------------------------------------------------------|
D|-------------------------------------------------------------------|
A|----------44444444------------------------44444444-----------------|
E|-222222222--------333333335555555522222222--------6666666611111111-|

 F#       C#      G       A       F#      C#      A#      G
E|-------------------------------------------------------------------|
B|-------------------------------------------------------------------|
G|-------------------------------------------------------------------|
D|-------------------------------------------------------------------|
A|----------44444444------------------------44444444-----------------|
E|-222222222--------333333335555555522222222--------6666666633333333-|


gtr I
   P.M._________
E|-----------------|
B|-----------------|
G|-----------------|
D|-----------------|
A|-4---------------|
-2-1-0-1-0-2-0-1-

                    x4
gtr II
E|-----------------|
B|-----------------|
G|-----------------|
D|-4---------------|
A|-4---------------|
E|-2---------------|

 F#       C#      C       A       F#      C#      A#      A
E|-------------------------------------------------------------------|
B|-------------------------------------------------------------------|
G|-------------------------------------------------------------------|
D|-------------------------------------------------------------------|
A|----------4444444433333333----------------44444444-----------------|
E|-222222222----------------5555555522222222--------6666666655555555-|


gtr I
   P.M._________
E|-----------------|
B|-----------------|
G|-----------------|
D|-----------------|
A|-4---------------|
-2-1-0-1-0-2-0-1-

                    x3
gtr II
E|-----------------|
B|-----------------|
G|-----------------|
D|-4---------------|
A|-4---------------|
E|-2---------------|

 F#       C#      G       A       F#      C#      A#      F
E|-------------------------------------------------------------------|
B|-------------------------------------------------------------------|
G|-------------------------------------------------------------------|
D|-------------------------------------------------------------------|
A|----------44444444------------------------44444444-----------------|
E|-222222222--------333333335555555522222222--------6666666611111111-|


VERSE ("Death's design blood splattered wall......")
 let ring.................................................
E|-----------------------------------------------------------------|
B|-----------------------------------------------------------------|
G|-----------------------------------------------------------------|
D|---------99-9----------------------------99-9----88-8------------|
A|-77-7------------88-8----101010--77-7--------------------88-8----|
(0)-0-0-(0)-0-0-(0)-0-0-(0)-0-0-(0)-0-0-(0)-0-0-(0)-0-0-(0)-0-0--


 let ring..................|
E|--------------------------------------------------------------------|
B|--------------------------------------------------------------------|
G|--------------------------------------------------------------------|
D|---------99-9-------------------------------------------------------|
A|-77-7------------88-8----101010--8----8----8----8----8----8---------|
(0)-0-0-(0)-0-0-(0)-0-0-(0)-0-0--6----6----6----6----6----6---------



E|-----------------------------------------------------------------|
B|-----------------------------------------------------------------|
G|-----------------------------------------------------------------|
D|---------99-9----------------------------99-9----88-8------------|
A|-77-7------------88-8----101010--77-7--------------------88-8----|
(0)-0-0-(0)-0-0-(0)-0-0-(0)-0-0-(0)-0-0-(0)-0-0-(0)-0-0-(0)-0-0--

E|-----------------------------------------------------------------|
B|-----------------------------------------------------------------|
G|-----------------------------------------------------------------|
D|---------99-9----------------------------10------9---------------|
A|-77-7------------88-8----101010--7-----------------------8-------|
(0)-0-0-(0)-0-0-(0)-0-0-(0)-0-0-(0)----------------------6-------


CHORUSRIFF
E|-------------------------------|
                |1, 2, 3 times   |4th time
E|---------------------------------|--------------|
B|---------------------------------|--------------|
G|---------------------------------|--------------| THE
D|-9----9-9---9------9-----8-------|--------------| END
A|-7----7-7---7----7----------9-5--|-6--5--3------|
E|-0----0-0---0--------------------|-4--3--1------|
Outros vídeos desta música
    16 exibições
      • ½ Tom
      • Am
      • Bbm
      • Bm
      • Cm
      • C#m
      • Dm
      • Ebm
      • Em
      • Fm
      • F#m
      • Gm
      • G#m
    • Adicionar à lista

    Afinação da cifra

    Afinador online

      0 comentários

      Ver todos os comentários

      Entre para o Cifra Club PRO

      Tenha acesso a benefícios exclusivos no App e no Site

      • Chega de anúncios

      • Mais recursos no app do Afinador

      • Atendimento Prioritário

      • Aumente seu limite de lista

      • Ajude a produzir mais conteúdo

      Cifra Club Pro

      Aproveite o Cifra Club com benefícios exclusivos e sem anúncios
      Cifra Club Pro
      Aproveite o Cifra Club com benefícios exclusivos e sem anúncios
      OK