Cifra Club

Aprenda

Jihad

Slayer

Cifra: Principal (violão e guitarra)
tom: C#
Tuning: Eb Ab Db Gb Bb eb
4/4
Riff 1 (intro)

|--------------------------------||
|-----12--12--12--15--15--11-11--||
|--9-----------------------------||
|--------------------------------||
|--------------------------------||
|--------------------------------||

|--------------------------------||
|--------------------------------||
|--------------------------------||
|--------------------------------||
|--------------------------------||
|--0--0--0--0--0--0--0--0--0--0--||

Riff 2 (intro)

|-----12--12--12--15--15--11--11--||
|-----12--12--12--15--15--11--11--||
|--9------------------------------||
|--9------------------------------||
|---------------------------------||
|---------------------------------||

|---------------------------------||
|---------------------------------||
|---------------------------------||
|--2--2--2--2--2--2--2--2--2--2---||
|--2--2--2--2--2--2--2--2--2--2---||
|--0--0--0--0--0--0--0--0--0--0---||

Riff 3 (intro)

|--------------------|----------------------|
|--------------------|----------------------|
|--------------------|----------------------|
|--------------------|---------8------------|
|----7-8-----6-------|--7-9-10---10-9-8-----|
|--0-----9-8---10-6--|------------------10--|

|--------------------|----------------------|
|--------------------|----------------------|
|--------------------|----------------------|
|--------------------|---------9------------|
|----7-8-----6-------|--7-9-10---10-9-------|
|--0-----9-8---10-6--|----------------10-9--|

|-------------------|----------------------|
|-------------------|----------------------|
|-------------------|----------------------|
|-------------------|---------8------------|
|----8-7-----7-6----|--7-9-10---10-9-8-----|
|--0-----9-8-----7--|------------------10--|

|-------------------|-----------------------|
|-------------------|-----------------------|
|-------------------|-----------------------|
|-------------------|---------10------------|
|----8-7-----7-6----|--7-9-10----10-9-------|
|--0-----9-8-----7--|-----------------10-9--|

3/4
|---------------------------|
|---------------------------|
|---------------------------|
|--2---------2-2-------2----|
|--2-2-------2-2-------2----|
|--0-0-0--0--0-0-0--0--0----|

Riff 4 (verse1)

|---------------------------------------------------|
|---------------------------------------------------|
|---------------------------------------------------|
|---2-2-2-2-2-2-2-2-2-2-2-2-2-2-2-2-2-2--2--2--2-2--|
|---2-2-2-2-2-2-2-2-2-2-2-2-2-2-2-2-2-2--2--2--2-2--|
|---0-0-0-0-0-0-0-0-0-0-0-0-0-0-0-0-0-0--0--0--0-0--|

Riff 5 (verse1)

|------------------------------------------------------|
|------------------------------------------------------|
|------------------------------------------------------|
|--5-5-5-5-5-5-5-5-5--5-5-5--5-5-5-5-5-5-5-5-5--5-5-5--|
|--5-5-5-5-5-5-5-5-5--5-5-5--5-5-5-5-5-5-5-5-5--5-5-5--|
|--3-3-3-3-3-3-3-3-3--3-3-3--3-3-3-3-3-3-3-3-3--3-3-3--|

Riff 6 (verse1)

|-------------------------------------------------------------------------------|
|-------------------------------------------------------------------------------|
|-------------------------------------------------------------------------------|
|---5--5--5--5--5--5--5--5--5---5--5--5---5--5--5--5--5--5--5--5--5---5--5--5---|
|---5--5--5--5--5--5--5--5--5---5--5--5---5--5--5--5--5--5--5--5--5---5--5--5---|
|---3--3--3--3--3--3--3--3--3---3--3--3---3--3--3--3--3--3--3--3--3---3--3--3---|

|-------------------------------------------------------------------------------|
|-------------------------------------------------------------------------------|
|-------------------------------------------------------------------------------|
|--11-11-11-11-11-11-11-11-11--11-11-11--11-11-11-11-11-11-11-11-11--11-11-11---|
|--11-11-11-11-11-11-11-11-11--11-11-11--11-11-11-11-11-11-11-11-11--11-11-11---|
|---9--9--9--9--9--9--9--9--9---9--9--9---9--9--9--9--9--9--9--9--9---9--9--9---|

riff 7 (chorus)

|------------------------------------|
|------------------------------------|
|------------------------------------|
|------------------------------------|
|--1-------2-------3--------1--------|
|----3-2-1---3-2-1----3-2-1---3-2-1--|

Riff 8 (verse2)

|----------------------------------------6---|
|------------------------------------8-7-----|
|----------------------------------5---------|
|--2-2-2-2--2-2-2--2-2-2--2-2-2-2------------|
|--2-2-2-2--2-2-2--2-2-2--2-2-2-2------------|
|--0-0-0-0--0-0-0--0-0-0--0-0-0-0------------|

Riff 9 (verse2)

|----------------------------------------6----|
|------------------------------------8-7---8--|
|----------------------------------5----------|
|--2-2-2-2--2-2-2--2-2-2--2-2-2-2-------------|
|--2-2-2-2--2-2-2--2-2-2--2-2-2-2-------------|
|--0-0-0-0--0-0-0--0-0-0--0-0-0-0-------------|

Riff 10

|-----------------------------------|-------------------------|
|-----------------------------------|-------------------------|
|--7\6-6-5-5-5-7-7-7-6-6-6-3---7\6--|--6-5-5-5-7-7-7-6-6-6-3--|
|--7\6-6-5-5-5-7-7-7-6-6-6-3---7\6--|--6-5-5-5-7-7-7-6-6-6-3--|
|--5\4-4-3-3-3-5-5-5-4-4-4-1---5\4--|--4-3-3-3-5-5-5-4-4-4-1--|
|-----------------------------------|-------------------------|

Solo

|--12-14-15-12-14-15-12-14-15-12-14-15--|--15-17-18-15-17-18-15-17-18-15-17-18--|
|---------------------------------------|---------------------------------------|
|---------------------------------------|---------------------------------------|
|---------------------------------------|---------------------------------------|
|---------------------------------------|---------------------------------------|
|---------------------------------------|---------------------------------------|

|--11-12-14-11-12-14-11-12-14-11-12-14--|--12-14-12-----------------|
|---------------------------------------|-----------14-12-11--------|
|---------------------------------------|--------------------14-----|
|---------------------------------------|---------------------------|
|---------------------------------------|---------------------------|
|---------------------------------------|---------------------------|

   1/2                                    1/2                 1
|---------------|--------------|------------------------|---------------/12h15---|
|---------------|--------------|------------------------|------------------------|
|--11bu--11--9--|--8-----------|--9---11--11bu-br--8----|--(8)bu-----------------|
|---------------|------10---9--|------------------------|------------------------|
|---------------|--------------|------------------------|------------------------|
|---------------|--------------|------------------------|------------------------|

|--19-15-17-15-12-15-19-15-17-15-12-15-19-17-15-12-15-19-17-15-12-15--|
|---------------------------------------------------------------------|
|---------------------------------------------------------------------|
|---------------------------------------------------------------------|
|---------------------------------------------------------------------|
|---------------------------------------------------------------------|

                                      2
|--19-17-15-12-15-19-15-12-19p15-12-----------|
|-----------------------------------17bu------|
|---------------------------------------------|
|---------------------------------------------|
|---------------------------------------------|
|---------------------------------------------|

             1/2                             1/2                  1
|------------12bu---|----12----------|------------|---------------------|
|--9/10--9----------|-------\--11\10-|------------|--------------12bu---|
|-------------------|----------------|--9-8--10bu-|----10---\----11bu---|
|-------------------|----------------|------------|---------------------|
|-------------------|----------------|------------|---------------------|
|-------------------|----------------|------------|---------------------|

                   1           1        w/bar
|---------------|-----------|--------|-----------|
|-----(12)------|--15bu-----|--19bu--|--(19)-----|
|-----(11)------|--14bu-----|--18bu--|--(18)-----|
|---------------|-----------|--------|-----------|
|---------------|-----------|--------|-----------|
|---------------|-----------|--------|-----------|

End riff

|--------------------|--------------------|
|--------------------|--------------------|
|--------------------|--------------------|
|----9-8------8------|----9-8------8------|
|--------10-9---9-8--|--------10-9---8-7--|
|--0-----------------|--0-----------------|

|--------------------|--------------------|
|--------------------|--------------------|
|--------------------|--------------------|
|--2-----------------|--2-----------------|
|--2-----------------|--2-----------------|
|--0-----------------|--0-----------------|
Colaboração e revisão:
  • Élison Duarte
3.832 exibições
    • ½ Tom
    • A
    • Bb
    • B
    • C
    • Db
    • D
    • Eb
    • E
    • F
    • F#
    • G
    • Ab
  • Adicionar à lista

    0 comentários

    Ver todos os comentários

    Conseguiu tocar?

    1 Tocaram 0 Ainda não

    Grave um vídeo tocando Jihad e nos envie!

    00:00 / 00:00
    outros vídeos desta música
    repetir qualidade Automático
    Outros vídeos desta música
    00:00 / 00:00
    Automático

    Cifra Club Pro

    Aproveite o Cifra Club com benefícios exclusivos e sem anúncios
    Cifra Club Pro
    Aproveite o Cifra Club com benefícios exclusivos e sem anúncios
    OK