Cifra Club

Raining Blood

Slayer

Cifra: Principal
exibições 134.445
Tom: D# (com acordes na forma de E) Afinação: Eb Ab Db Gb Bb Eb
Apenas Uma Guitarra
(intro)
    E5
E|----------------------------------------------------------------|
B|----------------------------------------------------------------|
G|----------------------------------------------------------------|
D|-2~~~~~~~~~~~~--------------------------------------------------|
A|-2~~~~~~~~~~~~--------------------------------------------------|
E|-0~~~~~~~~~~~~--------------------------------------------------|
  (......................Deixe Soar..............................)
Se sua guitarra Permitir, use a alavanca para dar efeito
(Guitarras 1&2)   (2x)
E|----------------------------------------------------------------|
B|----------------------------------------------------------------|
G|----------------------------------------------------------------|
D|----------8-9-8------8-7-------7-6------------------------------|
A|-------7----------9---------8-----------------------------------|
E|0-0-0-----------------------------------------------------------|

(Guitarra 2)   (2X)
E|----------------------------------------------------------------|
B|----------------------------------------------------------------|
G|-----------8-9-8------8-7-----7-6-------------------------------|
D|--------7----------9--------8-----------------------------------|
A|----------------------------------------------------------------|
E|-0-0-0----------------------------------------------------------|

  (Duas Guitarras)
E|----------------------------------------------------------------|
B|----------------------------------------------------------------|
G|----------------------------------------------------------------|
D|----------------------------------------------------------------|
A|----------------------------------------------------------------|
E|-000-000-000-000-000-000-000-000-000-000-000-000----------------|

    (4X)
E|----------------------------------------------------------------|
B|----------------------------------------------------------------|
G|----------------------------------------------------------------|
D|----------------3---2-------------------------------------------|
A|------------4-----------3---2-----------------------------------|
E|-0--2---4-------------------------------------------------------|

Spider Crawl:
E|----------------------------------------------------------------|
B|----------------------------------------------------------------|
G|----------------------------------------------------------------|
D|----------------------------------------------------------------|
A|----------------------------------------------------------------|
E|-5-3-2-0-6-4-3-2-0-6-4-3-0---5-3-2-0-6-4-3-2-0-6-4-3-0----------|

E|----------------------------------------------------------------|
B|----------------------------------------------------------------|
G|----------------------------------------------------------------|
D|----------------------------------------------------------------|
A|----------------------------------------------------------------|
E|-5-3-2-0-6-4-3-0-5-2-0-6-4-3-0-5-3-2-0-6-4-3-0-5-3-2-0-6--------|

E|----------------------------------------------------------------|
B|----------------------------------------------------------------|
G|----------------------------------------------------------------|
D|----------------3-----------------------------------------------|
A|----------------1-----------------------------------------------|
E|-4-3-0-5-3-2-0----0-3-5-3-2-0-6-4-3-0-5-3-2-0-6-4-3-0-----------|

    (2X)
E|----------------------------------------------------------------|
B|----------------------------------------------------------------|
G|----------------------------------------------------------------|
D|----------------------------------------------------------------|
A|---------------------5------------8-----------------------------|
E|-5-3-2-0-6-4-3-0-----3------------6-----------------------------|

          (8X)
E|----------------------------------------------------------------|
B|----------------------------------------------------------------|
G|---------------------------------9--8---------------------------|
D|-------------------------7-------9--8------------9/-12----------|
A|-------------------------7-------7--6------------9/-12----------|
E|-0000000000000000000000--5-------------000000000-7/-10----------|

          (4X)
E|----------------------------------------------------------------|
B|----------------------------------------------------------------|
G|-------------------------------------888888888888---------------|
D|---------------------------------8-7-888888888888--7--7---------|
A|---------7h10p8-----------7---10-----666666666666--7--7---------|
E|-0-0-0-0------------0-0-0--------------------------5--5---------|

(Rhythm Guitar)  (2X)
E|----------------------------------------------------------------|
B|----------------------------------------------------------------|
G|----------------------------------------------------------------|
D|----------------------------------------------------------------|
A|-2-2--2-2--2-2--2-2--2-2--2-2--2-2--2-2-------------------------|
E|-0-0--0-0--0-0--0-0--0-0--0-0--0-0--0-0-------------------------|
(Lead  Guitar)  (4X)
E|----------------------------------------------------------------|
B|----------------------------------------------------------------|
G|---------10-11-10------10-9-----9-8-----------------------------|
D|-------9------------11--------10--------------------------------|
A|----------------------------------------------------------------|
E|-0-0-0----------------------------------------------------------|
      (Rhythm 2)    (12X)
E|----------------------------------------------------------------|
B|----------------------------------------------------------------|
G|----------------------------------------------------------------|
D|-----------9----------8------------7----------------------------|
A|----7--10-------7--10--------7--10--------7-10-9----------------|
E|-0------------0-----------0------------0------------------------|

         (4X)
E|----------------------------------------------------------------|
B|----------------------------------------------------------------|
G|----------------------------------------------------------------|
D|----------------------------------------------------------------|
A|------5---9-------5---8-------5--7-------5--4-------------------|
E|-0--0-3---7--0--0-3---6--0--0-3--5--0--0-3--2-------------------|

E|----------------------------------------------------------------|
B|----------------------------------------------------------------|
G|----------------------------------------------------------------|
D|----------------------------------------------------------------|
A|----------------------------------------------------------------|
Eb |0000000000000000000000000000000000000000000000000000000000000000|
(Solo)
E|----------------------------------------------------------------|
B|----------------------------------------------------------------|
G|----------------------------------------------------------------|
D|----------------------------------------------------------------|
A|----------------------------------------------------------------|
E|0000000077777777776666666666333333444444444477777777778888------|
Acordes para:
    Composição: Hanneman / KingColaboração e revisão:
    • Lucas RamzKey
    • Luiz Ramos
    • Júnior

    0 comentários

      mostrar mais comentários

      Conseguiu tocar?

      58tocaram1ainda não

      Grave um vídeo tocando Raining Blood e mande pra gente!

      00:00 / 00:00
      outros vídeos desta música
      repetirqualidadeautomática
      Outro vídeos desta música
        00:00 / 00:00
        automática
        OK