Cifra Club

Aprenda

Repentless

Slayer

Cifra: Principal (violão e guitarra)
Tom: C (forma dos acordes no tom de C#) Afinação: Eb Ab Db Gb Bb Eb
+ = Palm Mute

Intro:
Eb|--------------------------------------------|
Bb|--------------------------------------------|
Gb|--------------------------------------------|  X2
Db|--------------------------------------------|
Ab|-----7---8---10---8---5----7~---8~----------|
Eb-0-0---0---0----0---0---0--5~---6~--------|
   + +   +   +    +   +   +


Eb|-------------------------------------------|
Bb|-------------------------------------------|
Gb|-------------------------------------------|
Db|-------------------------------------------|
Ab|-----7---8---10---8---5------8~------------|
Eb-0-0---0---0----0---0---0----6~--------|
   + +   +   +    +   +   +


Eb|------------------------------------------------------------|
Bb|------------------------------------------------------------|
Gb|------------------------------------------------------------|
Db|---------8~-7~------12~-11~------8~-7~----------------------|
Ab|--7~--8~-6~-5~---8~-10~-9~~---8~-6~-5~--5p6p5----5----------|
Eb--5~--6~---------6~-----------6~-------------7-6---7-6-5--|
                                               + +   + + +
Versos

 "Arrogance, violence, world in disarray…"
Eb|------------------------------------------------------------|
Bb|------------------------------------------------------------|
Gb|------------------------------------------------------------|
Db|------------------------------------------------------------|
Ab|-----------------------------------------------------5~-----|
Eb-0222222223333333322222222--022222222333333332222222-3~---|
   +++++++++++++++++++++++++  ++++++++++++++++++++++++
"I hate the life, hate the fame, hate the fuckin' scene…"
Eb|------------------------------------------------------------|
Bb|------------------------------------------------------------|
Gb|------------------------------------------------------------|
Db|------------------------------------------------------------|
Ab|---------------------------------------------------2--------|
Eb-0222222223333333322222222--02222222233333333222222-323---|
   +++++++++++++++++++++++++  +++++++++++++++++++++++++++

"Ain't got the time…"
Eb|------------------------------------------------------------|
Bb|------------------------------------------------------------|
Gb|------------------------------------------------------------|
Db|------------------------------------------------------------|
Ab|---------------------------------------------------7~-5-----|
Eb-0222222223333333322222222--022222222333333332222225~-3---|
   +++++++++++++++++++++++++  +++++++++++++++++++++++

"No looking back, no regrets, no apologies…."
Eb|------------------------------------------------------------|
Bb|------------------------------------------------------------|
Gb|------------------------------------------------------------|
Db|------------------------------------------------------------|
Ab|--------------------------------------------2-----2---------|
Eb-0222222223333333322222222-0222222223333333--3-2-3-3-2-3--|
   +++++++++++++++++++++++++ ++++++++++++++++ ++ + +++ + +

REFRÃO

"Live Fast!"
Eb|-----------------------------------|
Bb|-----------------------------------|
Gb|-----------------------------------|
Db|-----------------------------------|
Ab|------------------7--10--5--8--7---|
Eb|-0000000000000000---0---0--0--0--0-|
   ++++++++++++++++   +   +  +  +  +
"On high!"
Eb|-----------------------------------|
Bb|-----------------------------------|
Gb|-----------------------------------|
Db|-----------------------------------|
Ab|------------------7--10--7--8--5---|
Eb|-0000000000000000---0---0--0--0--0-|
   ++++++++++++++++   +   +  +  +  +
"Repentless!"
Eb|-----------------------------------|
Bb|-----------------------------------|
Gb|-----------------------------------|
Db|-----------------------------------|
Ab|------------------7--10--5--10--8--|
Eb|-0000000000000000---0--0---0--0--0-|
   ++++++++++++++++   +  +   +  +  +
"Let it ride!"
Eb|-----------------------------------|
Bb|-----------------------------------|
Gb|-----------------------------------|
Db|-----------------------------------|
Ab|------------------7--10--8----8~-8~|
Eb|-0000000000000000---0---0--0--6~-6~|
   ++++++++++++++++   +   +  +

REPETE VERSO E REFÃO

BASE DO SOLO

2X
Eb|------------------------------------------------------------|
Bb|------------------------------------------------------------|
Gb|------------------------------------------------------------|
Db|---------8~-7~------12~-11~------8~-7~----------------------|
Ab|--7~--8~-6~-5~---8~-10~-9~~---8~-6~-5~--5p6p5----5----------|
Eb--5~--6~---------6~-----------6~-------------7-6---7-6-5--|
                                               + + + + + +
2X
Eb|-------------------------------------------------------|
Bb|-------------------------------------------------------|
Gb|-------------------------------------------------------|
Db|-------------------------------------------------------|
Ab|-------------------------------------------------------|
Eb|--022222222-020-022222222-020-033333333-020-022222222--|
    +++++++++ +++ +++++++++ +++ +++++++++ +++ +++++++++
2X
Eb|-------------------------------------------------------|
Bb|-------------------------------------------------------|
Gb|-------------------------------------------------------|
Db|-------------------------------------------------------|
Ab|--022222222-020-022222222-020-033333333-020-022222222--|
Eb|-------------------------------------------------------|
    +++++++++ +++ +++++++++ +++ +++++++++ +++ +++++++++
2X
Eb|-------------------------------------------------------|
Bb|-------------------------------------------------------|
Gb|-------------------------------------------------------|
Db|-------------------------------------------------------|
Ab|-------------------------------------------------------|
Eb|--022222222-020-022222222-020-033333333-020-022222222--|
    +++++++++ +++ +++++++++ +++ +++++++++ +++ +++++++++

DEPOIS DO SOLO
Eb|--------------------------------------------|
Bb|--------------------------------------------|
Gb|--------------------------------------------|
Db|--------------------------------------------|
Ab|-----8---7---8---10---7----7~---8~----------|
Eb-0-0---0---0---0----0---0--5~---6~--------|
   + +   +   +   +    +   +

Eb|----------------------------------------|
Bb|----------------------------------------|
Gb|----------------------------------------|
Db|----------------------------------------|
Ab|-----8---7---8---10---7-----8~----------|
Eb-0-0---0---0---0----0---0---6~--------|
   + +   +   +   +    +   +

Eb|-----------------------------------------|
Bb|-----------------------------------------|
Gb|-----------------------------------------|
Db|-----------------------------------------|
Ab|-----8---7---8---12---10---8---5---------|
Eb-0-0---0---0---0----0----0---0---0-----|
   + +   +   +   +    +    +   +   +
Eb|--------------------------------------------|
Bb|--------------------------------------------|
Gb|--------------------------------------------|
Db|--------------------------------------------|
Ab|-----8---7---8---10---7----7~---8~----------|
Eb-0-0---0---0---0----0---0--5~---6~--------|
   + +   +   +   +    +   +

REPETE O VERSO, REFÃO E A INTRODUÇÃO....
Composição de Kerry King
Colaboração e revisão:
  • Jeferson L.
3.219 exibições
    • ½ Tom
    • A
    • Bb
    • B
    • C
    • Db
    • D
    • Eb
    • E
    • F
    • F#
    • G
    • Ab
  • Adicionar à lista

    0 comentários

    Mostrar mais comentários

    Conseguiu tocar?

    2 Tocaram 0 Ainda não

    Grave um vídeo tocando Repentless e mande pra gente!

    00:00 / 00:00
    outros vídeos desta música
    repetir qualidade Automático
    Outros vídeos desta música
    00:00 / 00:00
    Automático

    Cifra Club Pro

    Aproveite o Cifra Club com benefícios exclusivos e sem anúncios
    7 dias grátis
    Cifra Club Pro
    Aproveite o Cifra Club com benefícios exclusivos e sem anúncios
    7 dias grátis
    OK