Cifra Club

War Ensemble

Slayer

Cifra: Principal (violão e guitarra)
tom: C
Intro

Gtr 1 (Riff 1A)
E|---------------------------------|---------------------------------|
B|---------------------------------|---------------------------------|
G|---------------------------------|---------------------------------|
D|---------------------------------|-----------------8-------7-------|
A|---------------------------------|-----------------8-------7-------|
E|-3p1p0-0-0-0-3p1p0-0-0-0-3p1p0-0-|-0-0-3p1p0-0-0-0-6-------5-------|\
                                                                      4x
                              .     .  .    .   .   .   .   .   .   /
|---------------------------------|---------------------------------|
|---------------------------------|---------------------------------|
|---------------------------------|---------------------------------|
|---------------------------------|---------------------------------|
|---------------------------------|---------2---1-------------------|
|-3p1p0-0-0-0-3p1p0-0-0-0-3p1-0---|-0---3-----------0---3---2---1---|
                                                        (Fim Riff 1A)

Gtr 1 e 2 (Riff 1B)
          .               .                 .
|---------------------------------|---------------------------------|
|---------------------------------|---------------------------------|
|---------------------------------|---------------------------------|
|---------------------------------|---------------------------------|
|-2-----------5---4-----------6---|-5-----------9---8-------8-\-----|
|-0-------0---3---2-------0---4---|-3-------0---7---6-------6-\-----|

          .               .                 .
|---------------------------------|---------------------------------|
|---------------------------------|---------------------------------|
|---------------------------------|---------------------------------|
|-------------5---4-----------6---|-5-----------9---8-------8-\-----|
|-2-----------3---2-----------4---|-3-----------7---6-------6-\-----|
|-0-------0---------------0-------|---------0-----------------------|

          .               .                 .
|---------------------------------|---------------------------------|
|---------------------------------|---------------------------------|
|---------------------------------|---------------------------------|
|---------------------------------|---------------------------------|
|-2-----------5---4-----------6---|-5-----------9---8-------8-\-----|
|-0-------0---3---2-------0---4---|-3-------0---7---6-------6-\-----|
          .               .                 .
|---------------------------------|---------------------------------|
|---------------------------------|---------------------------------|
|---------------------------------|---------------------------------|
|-------------6---5-----------7---|-6-----------9---8-------8-\-----|
|-2-----------4---3-----------5---|-4-----------7---6-------6-\-----|
|-0-------0---------------0-------|---------0-----------------------|
                                                     (Fim Riff 1B)





1° e 2° Estrofes

Gtr 1 e 2(Riff 2)
      . . .       . . .       .         . . .       . . .       .
|---------------------------------|---------------------------------|
|---------------------------------|---------------------------------|
|---------------------------------|---------------------------------|
|---------------------------------|---------------------------------|
|-3-----------3-----------3-------|-6-----------6-----------6-------|
|-----3-3-3-------3-3-3-------3---|-----3-3-3-------3-3-3-------3---|\
                                                                      4x
      . . .       . . .       .         . . .       . . .      .
|---------------------------------|---------------------------------|/
|---------------------------------|---------------------------------|
|---------------------------------|---------------------------------|
|---------------------------------|---------------------------------|
|-5-----------5-----------5-------|-4-----------4-----------4-------|
|-----3-3-3-------3-3-3-------3---|-----3-3-3-------3-3-3-------3---|
                                                         (Fim Riff 2)

Tocar após o 4° verso
Gtr 1 (Riff 1A)
|---------------------------------|---------------------------------|
|---------------------------------|---------------------------------|
|---------------------------------|---------------------------------|
|---------------------------------|-----------------8-------7-------|
|---------------------------------|-----------------8-------7-------|
|-3p1p0-0-0-0-3p1p0-0-0-0-3p1p0-0-|-0-0-3p1p0-0-0-0-6-------5-------|
                              .     .  .    .   .   .   .   .   .
|---------------------------------|---------------------------------|
|---------------------------------|---------------------------------|
|---------------------------------|---------------------------------|
|---------------------------------|---------------------------------|
|---------------------------------|---------2---1-------------------|
|-3p1p0-0-0-0-3p1p0-0-0-0-3p1-0---|-0---3-----------0---3---2---1---|
                                                        (Fim Riff 1A)

|---------------------------------|-------------------------------------|
|---------------------------------|-------------------------------------|
|---------------------------------|-------------------------------------|
|---------------------------------|-----------------8---7-2-2-2-2-2-2-2-|
|---------------------------------|-----------------8---7-2-2-2-2-2-2-2-|
|-3p1p0-0-0-0-3p1p0-0-0-0-3p1p0-0-|-0-0-3p1p0-0-0-0-6---5-0-0-0-0-0-0-0-|

Gtr 1 e 2(Riff 2)
      . . .       . . .       .         . . .       . . .       .
|---------------------------------|---------------------------------|
|---------------------------------|---------------------------------|
|---------------------------------|---------------------------------|
|---------------------------------|---------------------------------|
|-3-----------3-----------3-------|-6-----------6-----------6-------|
|-----3-3-3-------3-3-3-------3---|-----3-3-3-------3-3-3-------3---|\
                                                                      4x
      . . .       . . .       .         . . .       . . .      .
|---------------------------------|---------------------------------|/
|---------------------------------|---------------------------------|
|---------------------------------|---------------------------------|
|---------------------------------|---------------------------------|
|-5-----------5-----------5-------|-4-----------4-----------4-------|
|-----3-3-3-------3-3-3-------3---|-----3-3-3-------3-3-3-------3---|
                                                         (Fim Riff 2)

Propaganda death ensemble, burial to be.
Corpse rotting through the night in blood-laced misery.
Scorched earth, the policy, the reason for the siege.
The pendulum it shaves the blade, strafing air blood raid.

Infiltration push reserves, encircle the front lines.
Supreme art of strategy playing on the minds.
Bombard till submission, take all to their graves.
Indication of triumph, the numbers that are dead.



Refrão
Gtr 1 e 2 (Riff 3)
          .               .                 .
|---------------------------------|---------------------------------|
|---------------------------------|---------------------------------|
|---------------------------------|---------------------------------|
|---------------------------------|---------------------------------|
|-2-----------5---4-----------6---|-5-----------9---8-------8-\-----|
|-0-------0---3---2-------0---4---|-3-------0---7---6-------6-\-----|

|---------------------------------|---------------------------------|
|---------------------------------|---------------------------------|
|---------------------------------|---------------------------------|
|---------------------------------|---------------------------------|
|-2---2---2---2---2---2---2---2---|-2---2---2---2---2---2---2---2---|
|-0---0---0---0---0---0---0---0---|-0---0---0---0---0---0---0---0---|

          .               .                 .
|---------------------------------|---------------------------------|
|---------------------------------|---------------------------------|
|---------------------------------|---------------------------------|
|---------------------------------|---------------------------------|
|-2-----------5---4-----------6---|-5-----------9---8-------8-\-----|
|-0-------0---3---2-------0---4---|-3-------0---7---6-------6-\-----|

|---------------------------------|---------------------------------|
|---------------------------------|---------------------------------|
|---------------------------------|---------------------------------|
|---------------------------------|-9---9---9---9---9---9---9---9---|
|-2---2---2---2---2---7---7---7---|-7---7---7---7---7---7---7---7---|
|-0---0---0---0---0---0---0---0---|-0---0---0---0---0---0---0---0---|
                                                         (Fim Riff 3)
 Sport the war!
 War support!

 Gtr 1 e 2 (Riff 1B)
          .               .                 .
|---------------------------------|---------------------------------|
|---------------------------------|---------------------------------|
|---------------------------------|---------------------------------|
|---------------------------------|---------------------------------|
|-2-----------5---4-----------6---|-5-----------9---8-------8-\-----|
|-0-------0---3---2-------0---4---|-3-------0---7---6-------6-\-----|

          .               .                 .
|---------------------------------|---------------------------------|
|---------------------------------|---------------------------------|
|---------------------------------|---------------------------------|
|-------------5---4-----------6---|-5-----------9---8-------8-\-----|
|-2-----------3---2-----------4---|-3-----------7---6-------6-\-----|
|-0-------0---------------0-------|---------0-----------------------|

          .               .                 .
|---------------------------------|---------------------------------|
|---------------------------------|---------------------------------|
|---------------------------------|---------------------------------|
|---------------------------------|---------------------------------|
|-2-----------5---4-----------6---|-5-----------9---8-------8-\-----|
|-0-------0---3---2-------0---4---|-3-------0---7---6-------6-\-----|
          .               .                 .
|---------------------------------|---------------------------------|
|---------------------------------|---------------------------------|
|---------------------------------|---------------------------------|
|-------------6---5-----------7---|-6-----------9---8-------8-\-----|
|-2-----------4---3-----------5---|-4-----------7---6-------6-\-----|
|-0-------0---------------0-------|---------0-----------------------|
                                                        (Fim Riff 1B)

The sport is war, total war
{1. When victories really massacre}
{2. When victory's really survival}
{3. When the end is a slaughter}
The final swing is not a drill
Its how many people I can kill!



Acompanhamento Do 1° Solo
Gtr 2 (Riff 4)
    . . . . . . . . . . . .           . . . . . . . . . . . .
|---4-4-4-4-4-4-4-4-4-4-4-4--7-----|---5-5-5-5-5-5-5-5-5-5-5-5----2--|
|---4-4-4-4-4-4-4-4-4-4-4-4--7-----|---5-5-5-5-5-5-5-5-5-5-5-5----2--|
|---2-2-2-2-2-2-2-2-2-2-2-2--5-----|---3-3-3-3-3-3-3-3-3-3-3-3----0--|\
                                                                      4x
    . . . . . . . . . . . .                .                      .
|---4-4-4-4-4-4-4-4-4-4-4-4------7-|--------5----------------------3-|/
|---4-4-4-4-4-4-4-4-4-4-4-4------7-|--------5----------------------3-|
|---2-2-2-2-2-2-2-2-2-2-2-2------5-|--------3----------------------1-|
                                                        (Fim Do Riff 4)
Ponte
Gtr 1 e 2(Riff 5) (2x)
   .           .   .   .   .   .    .   .    .   .
|---------------------------------|---------------------------------|
|---------------------------------|---------------------------------|
|---------------------------------|---------------------------------|
|-----8---7-----------------------|-----------------5---7---8-------|
|-----8---7-------6---5-------8---|-7-------7---6---5---7---8-------|
|-0-----------0---6---5---0---8---|-7---0---7---6---3---5---6-------|
  .           .   .   .   .   .     .   .   .   .
|---------------------------------|---------------------------------|
|---------------------------------|---------------------------------|
|---------------------------------|---------------------------------|
|-----8---7-----------------------|-----------------5---8---6-------|
|-----8---7-------6---5-------8---|-7-------7---6---5---8---6-------|
|-0-----------0---6---5---0---8---|-7---0---7---6---3---6---4-------|
  .           .   .   .   .   .     .   .   .   .
|---------------------------------|---------------------------------|
|---------------------------------|---------------------------------|
|---------------------------------|---------------------------------|
|-----8---7-----------------------|-----------------8---6---5-------|
|-----8---7-------6---5-------8---|-7-------7---6---8---6---5-------|
|-0-----------0---6---5---0---8---|-7---0---7---6---6---4---3-------|
  .           .   .  .    .  .      .   .   .   .
|---------------------------------|---------------------------------|
|---------------------------------|---------------------------------|
|---------------------------------|---------------------------------|
|-----8---7-----------------------|-----------------3-------3-------|
|-----8---7-------6---5-------8---|-7-------7---6---3-------3-------|
|-0-----------0---6---5---0---8---|-7---0---7---6---1-------1-------|
                                                         (Fim Riff 5)
Versos Antes do 2° Solo (Riff 6)
  .   .   .   .   .   .   .   .     .   .   .   .
|-2---2---2----2--2----2---2--2----|-2---2--2----2---|---5---|---7---|
|-2---2---2----2--2----2---2--2----|-2---2--2----2---|---5---|---7---|
|-0---0---0----0--0----0---0--0----|-0---0--0----0---|---3---|---5---|
                 .   .   .   .     .   .   .   .
|------9--------|2---2---2---2-----|2--2---2---2------|---5---|----8---|
|------9--------|2---2---2---2-----|2--2---2---2------|---5---|----8---|
|------7--------|0---0---0---0-----|0--0---0---0------|---3---|----6---|
                   .   .   .   .     .   .   .   .
|-----6--------|---2---2---2--2----|-2---2---2--2---|---8---|---6----|
|-----6--------|---2---2---2--2----|-2---2---2--2---|---8---|---6----|
|-----4--------|---0---0---0--0----|-0---0---0--0---|---6---|---4----|
                  .   .   .   .     .   .   .   .
|------5-------|--2----2---2--2---|--2---2---2---2--|---------3-----|
|------5-------|--2----2---2--2---|--2---2---2---2--|---------3-----|
|------3-------|--0----0---0--0---|--0---0---0---0--|---------1-----|
                   .   .   .   .     .   .   .   .
|------3----------|2--2---2---2---|--2--2---2----2---|---5----|---7--|
|------3----------|2--2---2---2---|--2--2---2----2---|---5----|---7--|
|------1----------|0--0---0---0---|--0--0---0----0---|---3----|---5--|
                   .   .   .   .     .   .   .   .
|-----8--------|---2---2---2---2----|2---2---2---2-----|----5---|---8----|
|-----8--------|---2---2---2---2----|2---2---2---2-----|----5---|---8----|
|-----6--------|---0---0---0---0----|0---0---0---0-----|----3---|---6----|
                  .   .   .   .     .   .   .   .
|-----4--------|--0---0----0---0----|0---0---0--0-----|---6----|---4----|
|-----6--------|--2---2----2---2----|2---2---2--2-----|---8----|---6----|
|-----6--------|--2---2----2---2----|2---2---2--2-----|---8----|---6----|
                  .   .   .  .      .   .   .   .
|----5---------|--2---2---2---2----|-2---2---2---2---|--3-----|---3----|
|----5---------|--2---2---2---2----|-2---2---2---2---|--3-----|---3----|
|----3---------|--0---0---0---0----|-0---0---0---0---|--1-----|---1----|
                                                             (Fim Riff 6)

Intervalo
   .           .   .   .   .   .    .   .    .   .
|---------------------------------|---------------------------------|
|---------------------------------|---------------------------------|
|---------------------------------|---------------------------------|
|-----8---7-----------------------|-----------------5---7---8-------|
|-----8---7-------6---5-------8---|-7-------7---6---5---7---8-------|
|-0-----------0---6---5---0---8---|-7---0---7---6---3---5---6-------|

  .           .   .   .   .   .     .   .   .   .
|---------------------------------|---------------------------------|
|---------------------------------|---------------------------------|
|---------------------------------|---------------------------------|
|-----8---7-----------------------|-----------------5---8---6-------|
|-----8---7-------6---5-------8---|-7-------7---6---5---8---6-------|
|-0-----------0---6---5---0---8---|-7---0---7---6---3---6---4-------|

  .           .   .   .   .   .     .   .   .   .
|---------------------------------|---------------------------------|
|---------------------------------|---------------------------------|
|---------------------------------|---------------------------------|
|-----8---7-----------------------|-----------------8---6---5-------|
|-----8---7-------6---5-------8---|-7-------7---6---8---6---5-------|
|-0-----------0---6---5---0---8---|-7---0---7---6---6---4---3-------|

  .           .   .  .    .  .      .   .   .   .
|---------------------------------|---------------------------------|
|---------------------------------|---------------------------------|
|---------------------------------|---------------------------------|
|-----8---7-----------------------|-----------------3-------3-------|
|-----8---7-------6---5-------8---|-7-------7---6---3-------3-------|
|-0-----------0---6---5---0---8---|-7---0---7---6---1-------1-------|

Versos Antes do 2° Solo (Riff 6)
  .   .   .   .   .   .   .   .     .   .   .   .
|-2---2---2----2--2----2---2--2----|-2---2--2----2---|---5---|---7---|
|-2---2---2----2--2----2---2--2----|-2---2--2----2---|---5---|---7---|
|-0---0---0----0--0----0---0--0----|-0---0--0----0---|---3---|---5---|
                 .   .   .   .     .   .   .   .
|------9--------|2---2---2---2-----|2--2---2---2------|---5---|----8---|
|------9--------|2---2---2---2-----|2--2---2---2------|---5---|----8---|
|------7--------|0---0---0---0-----|0--0---0---0------|---3---|----6---|
                   .   .   .   .     .   .   .   .
|-----6--------|---2---2---2--2----|-2---2---2--2---|---8---|---6----|
|-----6--------|---2---2---2--2----|-2---2---2--2---|---8---|---6----|
|-----4--------|---0---0---0--0----|-0---0---0--0---|---6---|---4----|
                  .   .   .   .     .   .   .   .
|------5-------|--2----2---2--2---|--2---2---2---2--|---------3-----|
|------5-------|--2----2---2--2---|--2---2---2---2--|---------3-----|
|------3-------|--0----0---0--0---|--0---0---0---0--|---------1-----|
                   .   .   .   .     .   .   .   .
|------3----------|2--2---2---2---|--2--2---2----2---|---5----|---7--|
|------3----------|2--2---2---2---|--2--2---2----2---|---5----|---7--|
|------1----------|0--0---0---0---|--0--0---0----0---|---3----|---5--|
                   .   .   .   .     .   .   .   .
|-----8--------|---2---2---2---2----|2---2---2---2-----|----5---|---8----|
|-----8--------|---2---2---2---2----|2---2---2---2-----|----5---|---8----|
|-----6--------|---0---0---0---0----|0---0---0---0-----|----3---|---6----|
                  .   .   .   .     .   .   .   .
|-----4--------|--0---0----0---0----|0---0---0--0-----|---6----|---4----|
|-----6--------|--2---2----2---2----|2---2---2--2-----|---8----|---6----|
|-----6--------|--2---2----2---2----|2---2---2--2-----|---8----|---6----|
                  .   .   .  .      .   .   .   .
|----5---------|--2---2---2---2----|-2---2---2---2---|--3-----|---3----|
|----5---------|--2---2---2---2----|-2---2---2---2---|--3-----|---3----|
|----3---------|--0---0---0---0----|-0---0---0---0---|--1-----|---1----|

Be dead, fiend from above when darkness falls.
Descend on to my sights, your fallen walls.
Spearhead; break through the lines, flanked all around.
Soldiers of attrition forward their ground.

Regime prophetic age, old in its time.
Flowing beings run on through, deep in the Rhine.
Center of the web, all battles scored.
What is our war crimes era forever more!
Antes Do 2° solo
  .   .   .   .   .   .   .   .   .   .   .   .
|-2---2---2----2--2----2---2--2---2---2--2----2---|
|-2---2---2----2--2----2---2--2---2---2--2----2---|
|-0---0---0----0--0----0---0--0---0---0--0----0---|

Acompanhamento do 2° Solo
          .               .                 .
|---------------------------------|---------------------------------|
|---------------------------------|---------------------------------|
|---------------------------------|---------------------------------|
|---------------------------------|---------------------------------|
|-2-----------5---4-----------6---|-5-----------9---8-------8-\-----|
|-0-------0---3---2-------0---4---|-3-------0---7---6-------6-\-----|

|---------------------------------|---------------------------------|
|---------------------------------|---------------------------------|
|---------------------------------|---------------------------------|
|---------------------------------|---------------------------------|
|-2---2---2---2---2---2---2---2---|-2---2---2---2---2---2---2---2---|
|-0---0---0---0---0---0---0---0---|-0---0---0---0---0---0---0---0---|

          .               .                 .
|---------------------------------|---------------------------------|
|---------------------------------|---------------------------------|
|---------------------------------|---------------------------------|
|---------------------------------|---------------------------------|
|-2-----------5---4-----------6---|-5-----------9---8-------8-\-----|
|-0-------0---3---2-------0---4---|-3-------0---7---6-------6-\-----|

|---------------------------------|---------------------------------|
|---------------------------------|---------------------------------|
|---------------------------------|---------------------------------|
|---------------------------------|-9---9---9---9---9---9---9---9---|
|-2---2---2---2---2---7---7---7---|-7---7---7---7---7---7---7---7---|
|-0---0---0---0---0---0---0---0---|-0---0---0---0---0---0---0---0---|

          .               .                 .
|---------------------------------|---------------------------------|
|---------------------------------|---------------------------------|
|---------------------------------|---------------------------------|
|---------------------------------|---------------------------------|
|-2-----------5---4-----------6---|-5-----------9---8-------8-\-----|
|-0-------0---3---2-------0---4---|-3-------0---7---6-------6-\-----|

          .               .                 .
|---------------------------------|---------------------------------|
|---------------------------------|---------------------------------|
|---------------------------------|---------------------------------|
|-------------5---4-----------6---|-5-----------9---8-------8-\-----|
|-2-----------3---2-----------4---|-3-----------7---6-------6-\-----|
|-0-------0---------------0-------|---------0-----------------------|

          .               .                 .
|---------------------------------|---------------------------------|
|---------------------------------|---------------------------------|
|---------------------------------|---------------------------------|
|---------------------------------|---------------------------------|
|-2-----------5---4-----------6---|-5-----------9---8-------8-\-----|
|-0-------0---3---2-------0---4---|-3-------0---7---6-------6-\-----|
          .               .                 .
|---------------------------------|---------------------------------|
|---------------------------------|---------------------------------|
|---------------------------------|---------------------------------|
|-------------6---5-----------7---|-6-----------9---8-------8-\-----|
|-2-----------4---3-----------5---|-4-----------7---6-------6-\-----|
|-0-------0---------------0-------|---------0-----------------------|










Versos Depois Do Solo
  Gtr 1 e 2 (Riff 7)
      . . .       . . .       .         . . .       . . .       .
|---------------------------------|---------------------------------|
|---------------------------------|---------------------------------|
|---------------------------------|---------------------------------|
|-2-----------2-----------2-------|-5-----------5-----------5-------|
|-2-----------2-----------2-------|-5-----------5-----------5-------|
|-----0-0-0-------0-0-0-------0---|-----0-0-0-------0-0-0-------0---|\
                                                                      4x
      . . .      . . .        .         . . .      . . .       .
|---------------------------------|---------------------------------|/
|---------------------------------|---------------------------------|
|---------------------------------|---------------------------------|                                                          |-4-----------4-----------4-------|-3-----------3-----------3-------|
|-4-----------4-----------4-------|-3-----------3-----------3-------|
|-----0-0-0-------0-0-0-------0---|-----0-0-0-------0-0-0-------0---|
 (Fim Riff 7)

Propaganda war ensemble, burial to be.
Bones shining by the night, in blood-laced misery.
Campaign of elimination, twisted psychology.
When victory is to survive and death is defeat.

Gtr. III (Solo I)
   *
|--17b(1)------------------r\-----|---------------------------------|
|-x---------------------------0-\-|---------------------------------|
|x----------------------------0-\-|---------------------------------|
|---------------------------------|-/7b(1)-r-b(1)-5--10p8p7---------|
|---------------------------------|--------------------------10p8p7-|
|---------------------------------|---------------------------------|

|---------------------------------|---------------------------------|
|---------------------------------|---------------------------------|
|---------------------------------|---------------------------------|
|---------------------------------|------------------------7--------|
|---------------------------------|-----------------7h8h10----------|
|-10p8p7---8p7p5---8p6p5---3h5h7--|-5h6h8---7h8h10------------------|
  .  . .   . . .  . . .   . . .    . . .   . . .   . . .
|---------------------------------|---------------------------------|
|-15-----------------------\------|-/10b(1)-------r/12b(1)-------r\-|
|-14b(1)-------------------\------|---------------------------------|
|---------------------------------|---------------------------------|
|---------------------------------|---------------------------------|
|---------------------------------|---------------------------------|

                                    (-1) (-1) (-1) (-1)
|---------------------------------|---------------------------------|
|---------------------------------|---------------------------------|
|-2b(1)-------2/4b(1)-----r-------|-0-------------------------------|
|---------------------------------|---------------------------------|
|---------------------------------|---------------------------------|
|---------------------------------|---------------------------------|

|---------------------------------|---------------------------------|
|---------------------------------|---------------------------------|
|-5p3p2---5p3p2-------------------|---------------------------------|
|-----------------5p3p2---5p3p2---|---------------------------------|
|---------------------------------|-5p3p2---5p3p2---5h7p5---9p7h9---|
|---------------------------------|---------------------------------|

|---------------------------------|---------------------------------|
|---------------------------------|---------------------------------|
|---------------------------------|-------------------------7---7---|
|-7---7---9p7h9-------------------|---------7---7---9p7h9-----9-----|
|---9---------------------7h9p7---|-9p7h9-----9---------------------|
|----------------10p7h10----------|---------------------------------|
 . . .   . . .   . . .   . . .     . . .   . . .

|---------------------------------|---------------------------------|
|---------------------------------|---------------------------------|
|-/9b(1)-------r-b(1)--------r----|-9b(1)-------r-b(1)--------------|
|---------------------------------|---------------------------------|
|---------------------------------|---------------------------------|
|---------------------------------|---------------------------------|

|---------------------------------|---------------------------------|
|-----------------/10b(1)------r\-|-/13b(1)----r\---/15b(1.75)---r\-|
|-/10b(1)------r\-----------------|---------------------------------|
|---------------------------------|---------------------------------|
|---------------------------------|---------------------------------|
|---------------------------------|---------------------------------|
                                                         (end Solo I)
Gtr. IV (Solo II)
  pick slides
|---------------------------------|---------------------------------|
|---------------------------------|---------------------------------|
|---------------------------------|---------------------------------|
|---------------------------------|---------------------------------|
|---------------------------------|---------------------------------|
|-x-----------------------x-------|---------------------------------|

|---------------------------------|---------------------------------|
|---------------------------------|---------------------------------|
|---------------------------------|---------------------------------|
|---------------------------------|---------------------------------|
|---------------------------------|---------------------------------|
|-0h4h5-8p5-8p5p4p0h4h5-8p5-8p5p4p|-0h4h5-8p5-8p5p4p0h4h5-8p5-8p5p4p|
        t   t          t   t             t   t           t   t

|---------------------------------|---------------------------------|
|---------------------------------|---------------------------------|
|---------------------------------|---------------------------------|
|---------------------------------|---------------------------------|
|---------------------------------|---------------------------------|
|-0h3h5-7p5-7p5p3p0h3h5-7p5-7p5p3p|-0h3h5-7^5-7p5p3p0h4h5-8p5-8p5p4p|
        t   t           t   t             t  t           t   t

|-------------------------------------|-------------------------------------|
|-------------------------------------|-------------------------------------|
|-------------------------------------|-------------------------------------|
|-------------------------------------|-------------------------------------|
|-------------------------------------|-------------------------------------|
|-0h4h7-10p7-10p7p4p0h4h7-10p7-10p7p4p|-0h4h7-10p7-10p7p4p0h5h8-10p8-10p8p5p|
        t    t           t     t             t    t            t    t

|-------------------------------------------|
|-------------------------------------------|
|-------------------------------------------|
|-------------------------------------------|
|-------------------------------------------|
|-0h7h10-13p10-13p10p7p0h7h10-13p10-13p10p7p|
         t     t             t     t

|----------------------------------------|---------------------------------|
|----------------------------------------|---------------------------------|
|----------------------------------------|-/12-----------------------------|
|---------------------------15p0h9h12h9\-|---------------------------------|
|------------------15p0h8h11-------------|---------------------------------|
|-0h7h10-16p0h10h13----------------------|---------------------------------|
          t        t        t

|---------------------------------|----------------------------------------|
|---------------------------------|-----------13----13--15-13-15--17-15-17-|
|---------------------------12-14-|-16-14-16-----16------------------------|
|---------------------------------|----------------------------------------|
|---------------------------------|----------------------------------------|
|---------------------------------|----------------------------------------|

|-13----13--15-13-15--17-15-17-----------|-----------------b(1)------------|
|----17----------------------------------|---------------------------------|
|----------------------------------------|---------------------------------|
|----------------------------------------|---------------------------------|
|----------------------------------------|---------------------------------|
|----------------------------------------|---------------------------------|

|-r--b(1)--r--b(1)--r--b(1)-----\-|
|---------------------------------|
|---------------------------------|
|---------------------------------|
|---------------------------------|
|---------------------------------|

|-------------------------------------------------|
|-18-18-18-18-18-18-18-18-17-17-17-17-17-17-17-17-|
|-17-17-17-17-17-17-17-17-16-16-16-16-16-16-16-16-|
|-------------------------------------------------|
|-------------------------------------------------|
|-------------------------------------------------|

|-------------------------------------------------|
|-15-15-15-15-15-15-15-15-13-------------------13\|
|-14-14-14-14-14-14-14-14-13-------------------13\|
|-------------------------------------------------|
|-------------------------------------------------|
|-------------------------------------------------|

|-17-17-17-17-17----16-13-17-17-17-17-17----16-13-|
|-------------------------------------------------|
|-------------------------------------------------|
|-------------------------------------------------|
|-------------------------------------------------|
|-------------------------------------------------|

|-19-19-19-19-19----17-16-19-19-19-19-19----17-16-|
|-------------------------------------------------|
|-------------------------------------------------|
|-------------------------------------------------|
|-------------------------------------------------|
|-------------------------------------------------|

|-16-16-16-16-16----13-12-16-16-16-16-16----13-12-|
|-------------------------------------------------|
|-------------------------------------------------|
|-------------------------------------------------|
|-------------------------------------------------|
|-------------------------------------------------|

|-16-13----12-------------------------------------|
|----------------15-13----12----------------------|
|-------------------------------14---\------------|
|-------------------------------------------------|
|-------------------------------------------------|
|-------------------------------------------------|

|----------------------------------------|
|----------------------------------------|
|----------------------------------------|
|-------------------------------12----12-|
|-----------12----12--15-12-15-----15----|
|-15-12-15-----15------------------------|

|----------------------------------------|-12--------------12--------------|
|-------------------------------13----13-|-15b(1)----------15b(1)----------|
|-----------12----12--14-12-14-----14----|---------------------------------|
|-14-12-14-----14------------------------|---------------------------------|
|----------------------------------------|---------------------------------|
|----------------------------------------|---------------------------------|

                                   (Fifth verse starts here)
|-17-------------19---------------|-22b(1)--------------------------|
|-20b(1)---------22b(1)-----------|---------------------------------|
|---------------------------------|---------------------------------|
|---------------------------------|---------------------------------|
|---------------------------------|---------------------------------|
|---------------------------------|---------------------------------|
Composição de Jeff Hanneman / Tom Araya
Colaboração e revisão:
  • thiagobatista10
4.098 exibições
    • ½ Tom
    • A
    • Bb
    • B
    • C
    • Db
    • D
    • Eb
    • E
    • F
    • F#
    • G
    • Ab
  • Adicionar à lista

    0 comentários

    Ver todos os comentários

    Conseguiu tocar?

    4 Tocaram 0 Ainda não

    Grave um vídeo tocando War Ensemble e nos envie!

    00:00 / 00:00
    Outros vídeos desta música
    Repetir Qualidade Automático
    Outros vídeos desta música
    00:00 / 00:00
    Automático

    Cifra Club Pro

    Aproveite o Cifra Club com benefícios exclusivos e sem anúncios
    Cifra Club Pro
    Aproveite o Cifra Club com benefícios exclusivos e sem anúncios
    OK