Cifra Club

Aprenda

World Painted Blood

Slayer

Cifra: Principal (violão e guitarra)
Tom: Eb (forma dos acordes no tom de E) Afinação: Eb Ab Db Gb Bb Eb
Intro:

Riff 1:
E|------------------------------------------|
B|------------------------------------------|
G|------------------------------------------|
D|------------------------------------------|
A|---7--6-----------------------------------|
E|----------7--8--5-------------------------|

Riff 2:

E|------------------------------------------------------------------|
B|------------------------------------------------------------------|
G|------------------------------------------------------------------|
D|------------------------------------------------------------------|
A|------------------------------------------------------------------|
E|-000-0-0-0-0-000-000-0-0-0-0-000-000-0-0-0-0-0-0-1111111144444444-|

Riff 3:
E|------------------------------------------------------------------|
B|------------------------------------------------------------------|
G|------------------------------------------------------------------|
D|------------------------------------------------------------------|
A|------------------------------------------------------------------|
E|-222-2-222-2-222-111-1-111-1-111-222-2-222-2-222-6666666655555555-|

Riff 4:
E|--------------------------------------------------------------------|
B|--------------------------------------------------------------------|
G|9/7-7-7-7-7/9-9-9/10/13/12-12-12-12-12-12\10-10-10\-6-6-6-6---------|
D|--------------------------------------------------------------------|
A|7/5-5-5-5-5/7-7-7/8/11/10-10-10-10-10-10\-8--8--8\--4-4-4-4---------|
E|--------------------------------------------------------------------|

Riff 5:
E|----------------------------------------------------|
B|----------------------------------------------------|
G|----------------------------------------------------|
D|----------------------------------------------------|
A|--7h8--------7h8---8h10---7h8-7h8--------8///233333-|
E|------000000-----0------0---------000000-----011111-|

Riff 6:
E|---------------------------------|
B|---------------------------------|
G|---------------------------------|
D|------------------------2223300--|
A|-2---2-2-----2-2-2---------------|
E|-0---0-0-----0-0-0---------------|

(Riff 1)

(Riff 2)
Disease spreading death
Entire population dies
Dead before you're born
Massive suicide
Vicious game of fear
It's all extermination now
Poison in your veins
Global genocide
Slaughter governs law
The apocalypse begins
Pain becomes the norm
Seeking homicide
Beware the coming storm
That starts illuminating fires
God is laughing hard
Man has gone insane

(Riff 3)
World painted blood
No sanctuary
World painted blood
No sanctuary

(Riff 2)
Tip the human scale
Follow revelations plan
It must come to pass
Secret shadows lie
Blue print haunting dreams
In which manipulation wins
Speak no hidden fears
Religion neutralized
Emerged from the dark
Sadist mercenary ride
Realm of this world
Godless messengers
Sickless, mindless hate
Becoming evolution's cure
Planets usher in alignment
God has died

(Riff 3)
World painted blood
No sanctuary
World painted blood
No sanctuary

(Riff 4)

(Riff 5)
God send death, watch it bleed, justified
Manufactured lives born in hell
Angels fall, wings on fire, crucified
Terrorizing man, burn the world
Reflecting eyes, sickle swings, wave of blood
Suicidal mind from the start
Endless pain, open wounds, slit the throat
Radiation child seeks the throne

(Riff 4)

(Riff 5)
Strafing down demigods certain death
Coming from the stars, lord of all
Dark rift rise, flourish life, perish man
We destroy ourselves, cease to live
Children's blood feed the dead sea of flesh
Catastrophic fall rest in hell
Flaming corpse, screaming eyes, watch it die
Walk among the dead, pick your grave

(Riff 6)

 (Solo)

(Riff 6)
Like a disease spreading death
Erasing your existence

(Riff 6)
Satan's hand begins the end
And frees the world forever
Gomorrah's dream to live in sin
Has reached its critical mass
Man himself has become God
And laughs at his destruction
In which we trust a secret government
Is now in total collapse

(Riff 2)
Disease spreading death
Entire population dies
Dead before you're born
Massive suicide
Vicious game of fear
It's all extermination now
Poison in your veins
Global genocide
Slaughter governs law
The apocalypse begins
Pain becomes the norm
Seeking homicide
Beware the coming storm
That starts illuminating fires
God is laughing hard
Man has gone insane

(Riff 3)
World painted blood
No sanctuary
World painted blood
No sanctuary

(Riff 4)

(Riff 4)
Signs of disease, rivers red, blood in ice, plague
Signs of disease, rivers red, blood in ice, plague
Signs of disease, rivers red, blood
Welcoming our death
Composição de Araya / Hanneman
Colaboração e revisão:
10.434 exibições
    • ½ Tom
    • A
    • Bb
    • B
    • C
    • Db
    • D
    • Eb
    • E
    • F
    • F#
    • G
    • Ab
  • Adicionar à lista

    0 comentários

    Mostrar mais comentários

    Conseguiu tocar?

    16 Tocaram 0 Ainda não

    Grave um vídeo tocando World Painted Blood e mande pra gente!

    00:00 / 00:00
    outros vídeos desta música
    repetir qualidade Automático
    Outros vídeos desta música
    00:00 / 00:00
    Automático

    Cifra Club Pro

    Aproveite o Cifra Club com benefícios exclusivos e sem anúncios
    7 dias grátis
    Cifra Club Pro
    Aproveite o Cifra Club com benefícios exclusivos e sem anúncios
    7 dias grátis
    OK