Cifra Club

Elisa

Slick Shoes

Cifra: Principal (violão e guitarra)
tom: Ebm
(intro)

E|---------------------------------------------------------------------------|
B|---------------------------------------------------------------------------|
G|------11-----9-----8-----------9--------9------then----------9-------------|
D|-9-9------9-----9-----9--6--9-----4--9-----------------------9-------------|
A|----------------------------------------------------------7----------------|
E|---------------------------------------------------------------------------|

(verso)
E|---------------------------------------------------------------------------|
B|---------------------------------------------------------------------------|
G|---9-----11----9----11------9----8-----4----3----4----6--------------------|
D|---9-----11----9----11------9----8-----4----3----4----6--------------------|
A|-7----9------7----9-------7----6-----2----1----2----4----------------------|
E|---------------------------------------------------------------------------|

E|---------------------------------------------------------------------------|
B|---------------------------------------------------------------------------|
G|---9-----11----9----11------9----8-----4----3----4----6--------------------|
D|---9-----11----9----11------9----8-----4----3----4----6--------------------|
A|-7----9------7----9-------7----6-----2----1----2----4----------------------|
E|---------------------------------------------------------------------------|

E|---------------------------------------------------------------------------|
B|-----------12--11--9--7--5--7----------------------------------------------|
G|-4---6---------------------------------------------------------------------|
D|-4---6---------------------------------------------------------------------|
A|---------------------------------------------------------------------------|
E|---------------------------------------------------------------------------|

E|---------------------------------------------------------------------------|
B|---*7---*7---*7---*7---*7---*7---*7----------------------------------------|
G|---*7---*7---*7---*7---*7---*7---*7----------------------------------------|
D|---------------------------------------------------------------------------|
A|-7----9----6----7----4----1----2-------------------------------------------|
E|---------------------------------------------------------------------------|

(ponte)
E|---------------------------------------------------------------------------|
B|---------------------------------------------------------------------------|
G|---------------------------------------------------------------------------|
D|--9---4---9---11---9---4---------------------------------------------------|
A|-7---2---7---9---7---2-----------------------------------------------------|
E|---------------------------------------------------------------------------|

(final)
E|---------------------------------------------------------------------------|
B|---------------------------------------------------------------------------|
G|-9---8---4---11---9---8---4---3---------9----8----4---------4---6---8---9--|
D|-9---8---4---11---9---8---4---3--then---9----8----4--then---4---6---8---9--|
A|7---6---2---9---7---6---2---1----------7----6----2---------2---4---6---7---|
E|---------------------------------------------------------------------------|
00:00 / 00:00
Outros vídeos desta música
Repetir
Outros vídeos desta música
Composição de Ryan Kepke / Slick Shoes
Colaboração e revisão:
  • Samá Basílio
64 exibições
    • ½ Tom
    • Am
    • Bbm
    • Bm
    • Cm
    • C#m
    • Dm
    • Ebm
    • Em
    • Fm
    • F#m
    • Gm
    • G#m
  • Adicionar à lista

    0 comentários

    Ver todos os comentários

    Entre para oCifra Club PRO

    Tenha acesso a benefícios exclusivos no App e no Site

    • Chega de anúncios

    • Prioridade de compra em lançamentos

    • Mais recursos no app do Afinador

    • Atendimento Prioritário

    • Descontos nos produtos Cifra Club

    • Ajude a produzir mais conteúdo

    00:00 / 00:00

    Cifra Club Pro

    Aproveite o Cifra Club com benefícios exclusivos e sem anúncios
    Cifra Club Pro
    Aproveite o Cifra Club com benefícios exclusivos e sem anúncios
    OK