Cifra Club

Closer To The Sun

Slightly Stoopid

Cifra: Principal (violão e guitarra)
Selo Cifra Club: esta cifra foi revisada para atender aos critérios oficiais da nossa Equipe de Qualidade.
tom: G
Awesome song from an awesome fucking band.... This song is sorta meant to be improved. 
as many hammer-ons, pull-offs, and slides to the arpeggios as you'd like for a fuller 
rhythm. Standard Tuning.

Part A-
Intro, Verse, and Chorus...

     A             G              C             D
e-------------------------------------------------2h3p2--0---0---|
b--2h3p2p0--0--0----------------------------1-------------3------|
g------------2-----------0---0----------0------------------2-----|
d-------------2-----------0-------0h2-----------0------0---------|
a--0------0---------0h2----2-----3----3---33---------------------|
e------------------3---3-----------------------------------------|

Part B-
The other part of this song goes like this. It's best to improv the arpeggios on the G 
A chords....

     A                   G
e-------5---5-----5-------3-----3-----3-----|
b---------5-----------------3-----------3---|
g--4/6--------6------6/4--------------------|
d--5/7------7---7----7/5------5-----5-------|
a-------------------------------------------|
e-------------------------------------------|

    D               C              D            C
e--------2h0-----------------------------2h0--------------------|
b---------------------------------------------------------------|
g----0h2-----------------------------0h2------------------------|
d--0---------0------0h2p0h2p0------0----------0----0h2p0h2p0----|
a---------------3--------------3-----------------3-----------3--|
e---------------------------------------------------------------|
That last part sounds more complicated on the album than it really is. Listen to the 
unplugged version. And again, improv and add in youir own slides hammer-ons and pull-offs. 
is the dumbed-down  way of doing this song.

-
Outros vídeos desta música
    4.283 exibições
      • ½ Tom
      • A
      • Bb
      • B
      • C
      • Db
      • D
      • Eb
      • E
      • F
      • F#
      • G
      • Ab
    • Adicionar à lista

    Afinação da cifra

    Afinador online

      0 comentários

      Ver todos os comentários

      Entre para o Cifra Club PRO

      Tenha acesso a benefícios exclusivos no App e no Site

      • Chega de anúncios

      • Badges exclusivas

      • Mais recursos no app do Afinador

      • Atendimento Prioritário

      • Aumente seu limite de lista

      • Ajude a produzir mais conteúdo

      Cifra Club Pro

      Aproveite o Cifra Club com benefícios exclusivos e sem anúncios
      Cifra Club Pro
      Aproveite o Cifra Club com benefícios exclusivos e sem anúncios
      OK