Cifra Club

Aprenda

Before I Forget

Slipknot

Cifra: Principal (violão e guitarra)
tom: C#m
Afinação: B F# B E G# C#  (Drop B)

[Intro]

[Tab - Intro]

Parte 1 De 5
E|---------------------------------------------------|
B|---------------------------------------------------|
G|---------------------------------------------------| (7x)
D|-0h2-x-0h2-x-3p2-x-0h2-x-2h3p2---------------------|
A|-0h2-x-0h2-x-3p2-x-0h2-x-2h3p2---------------------|
E|-0h2-x-0h2-x-3p2-x-0h2-x-2h3p2---------------------|

Parte 2 de 5
E|---------------------------------------------------|
B|---------------------------------------------------|
G|---------------------------------------------------|
D|-0h2-x-0h2-x-3p2---5-5-0-0-5-5-0-0-----------------|
A|-0h2-x-0h2-x-3p2---5-5-0-0-5-5-0-0-----------------|
E|-0h2-x-0h2-x-3p2---5-5-0-0-5-5-0-0-----------------|

Go!

Parte 3 de 5
E|---------------------------------------------------|
B|---------------------------------------------------|
G|---------------------------------------------------| (3x)
D|-0h2-x-0h2-x-3p2-x-0h2-x-2h3p2---------------------|
A|-0h2-x-0h2-x-3p2-x-0h2-x-2h3p2---------------------|
E|-0h2-x-0h2-x-3p2-x-0h2-x-2h3p2---------------------|

Parte 4 de 5
E|---------------------------------------------------|
B|---------------------------------------------------|
G|---------------------------------------------------|
D|-0h2-x-0h2-x-3p2---5-5-0-0-------------------------|
A|-0h2-x-0h2-x-3p2---5-5-0-0-------------------------|
E|-0h2-x-0h2-x-3p2---5-5-0-0-------------------------|

Parte 5 de 5
E|---------------------------------------------------|
B|---------------------------------------------------|
G|---------------------------------------------------| (3x)
D|-0h2-x-0h2-x-3p2-x-0h2-x-2h3p2---------------------|
A|-0h2-x-0h2-x-3p2-x-0h2-x-2h3p2---------------------|
E|-0h2-x-0h2-x-3p2-x-0h2-x-2h3p2---------------------|

E|---------------------------------------------------|
B|---------------------------------------------------|
G|---------------------------------------------------|
D|-0h2-x-0h2-x-3p2-x--5-5-0-0-5-5-0-0----------------|
A|-0h2-x-0h2-x-3p2-x--5-5-0-0-5-5-0-0----------------|
E|-0h2-x-0h2-x-3p2-x--5-5-0-0-5-5-0-0----------------|

[Primeira Parte]

[Tab - Primeira Parte]

Parte 1 de 2 - 3x
E|---------------------------------------------------|
B|---------------------------------------------------|
G|---------------------------------------------------|
D|-2-2-2-2-3---2-2-2-3-------------------------------|
A|-2-2-2-2-3---2-2-2-3-------------------------------|
E|-2-2-2-2-3---2-2-2-3-------------------------------|
  P.M. . .     . . .

Parte 2 de 2
E|---------------------------------------------------|
B|---------------------------------------------------|
G|---------------------------------------------------|
D|-2-2-2-2-3----5-5-0-0------------------------------|
A|-2-2-2-2-3----5-5-0-0------------------------------|
E|-2-2-2-2-3----5-5-0-0------------------------------|
  P.M. . .

Stapled shut, inside an outside world and I'm
Sealed in tight, bizarre but right at home
Claustrophobic, closing in and I'm
Catastrophic, not again
I'm smeared across the page
And doused in gasoline
I wear you like a stain
Yet I'm the one who's obscene
Catch me up on all your sordid little insurrections,
I've got no time to lose,
And I'm just caught up in all the cattle

[Segunda Parte]

[Tab - Segunda Parte]

Guitarra 1
   H.A      .          .           .         .
E|---------------------------------------------------|
B|---------------------------------------------------|
G|---------------------------------------------------|
D|-2-2-3-2-----2-2-3-2----2-2-3-2----2-2-3-2---------|
A|-2-2-3-2--4--2-2-3-2----2-2-3-2--4-2-2-3-2-2-------|
E|-2-2-3-2-----2-2-3-2-2--2-2-3-2----2-2-3-2-2-------|

Guitarra 2
E|---------------------------------------------------|
B|---------------------------------------------------|
G|-9--12--11--10-------------------------------------|
D|---------------------------------------------------|
A|-7--10--9---8--------------------------------------|
E|---------------------------------------------------|

Guitarra 3
   H.A.      .      .      .
E|---------------------------------------------------|
B|---------------------------------------------------|
G|---------------------------------------------------|
D|---------------------------------------------------|
A|---------------------------------------------------|
E|--5-------2------5------2---------------------------|

Guitarra Adaptada
   H.A.   ...       ...       ...         .
E|---------------------------------------------------|
B|---------------------------------------------------|
G|---------------------------------------------------|
D|-2-2-3-----2-2-3-----2-2-3-----2-2-3-0-2-----------|
A|-2-2-3--4--2-2-3-----2-2-3---4-2-2-3-0-2-----------|
E|-2-2-3-5---2-2-3-2-2-2-2-3-5---2-2-3-0-2-----------|

Fray the strings
Throw the shapes
Hold your breath
Listen!
Riff - Segunda Parte:

[Refrão]

[Tab - Refrão]

Guitarra 1

Parte 1 de 2
E|---------------------------------------------------|
B|---------------------------------------------------|
G|---------------------------------------------------|
D|-2--3-2-5--0--5--0-7~--2--3-2-5--0--5--0-8\7-------|
A|-2--3-2-5--0--5--0-7~--2--3-2-5--0--5--0-8\7-------|
E|-2--3-2-5--0--5--0-7~--2-| —3-2-5--0--5--0-8\7-------|

Parte 2 de 2
E|---------------------------------------------------|
B|---------------------------------------------------|
G|---------------------------------------------------|
D|-2--3-2-5--0--5--0-8--7--7--7--8-7-10-5-5-5-8-8-7--|
A|-2--3-2-5--0--5--0-8--7--7--7--8-7-10-5-5-5-8-8-7--|
E|-2--3-2-5-| —0--5--0-8--7--7--7--8-7-10-5-5-5-8-8-7--|

Guitarra 2

Parte 2 de 2
E|---------------------------------------------------|
B|---------------------------------------------------|
G|------------------9--9--9-10-9-12-7-7-7/10---9-----|
D|-2--3-2-5-0-5-0-8----------------------------------|
A|-2--3-2-5-0-5-0-8-7--7--7-8--7-10-5-5-5/8----7-----|
E|-2--3-2-5-0-5-0-8----------------------------------|

I am a worm before I am a man
I was a creature before I could stand
I will remember before I forget
BEFORE I FORGET THAT!

I am a worm before I am a man
I was a creature before I could stand
I will remember before I forget
BEFORE I FORGET THAT!

[Tab Intro]

Parte 1 De 2
E|---------------------------------------------------|
B|---------------------------------------------------|
G|---------------------------------------------------| (3x)
D|-0h2-x-0h2-x-3p2-x-0h2-x-2h3p2---------------------|
A|-0h2-x-0h2-x-3p2-x-0h2-x-2h3p2---------------------|
E|-0h2-x-0h2-x-3p2-x-0h2-x-2h3p2---------------------|

Parte 2 de 5
E|---------------------------------------------------|
B|---------------------------------------------------|
G|---------------------------------------------------|
D|-0h2-x-0h2-x-3p2---5-5-0-0-5-5---------------------|
A|-0h2-x-0h2-x-3p2---5-5-0-0-5-5---------------------|
E|-0h2-x-0h2-x-3p2---5-5-0-0-5-5---------------------|

[Primeira Parte - Variação Letra]

I'm ripped across the ditch
And settled in the dirt and
I wear you like a stitch
Yet I'm the one who's hurt
Pay attention to your twisted little indiscretions
I've got no right to win
I'm just caught up all the battles

[Segunda Parte - Variação Letra]

Locked in clutch
Pushed in place
Hold your breath
Listen!

[Refrão]

I am a worm before I am a man
I was a creature before I could stand
I will remember before I forget
BEFORE I FORGET THAT!

I am a world before I am a man
I was a creature before I could stand
I will remember before I forget
BEFORE I FORGET THAT!

[Instrumental]

Parte 1 de 9
E|--------------------------------------------------|
B|--------------------------------------------------|
G|--------------------------------------------------|
D|-5-5-5-5-5-5-5-4--4-5-5-5-5-5-5-4-5-5-5-5-5-5-4-5-|
A|--------------------------------------------------|
E|--------------------------------------------------|

Parte 2 de 9
E|--------------------------------------------------|
B|--------------------------------------------------|
G|--------------------------------------------------|
D|-5-7--5-5-4--5-5-5-5-5-5-4--5-5-5-5-5-5-4---------|
A|--------------------------------------------------|
E|--------------------------------------------------|

Parte 3 de 9
E|--------------------------------------------------|
B|--------------------------------------------------|
G|--------------------------------------------------|
D|--5-5-5-5-5-5-4--5-5-7-5--------------------------|
A|--------------------------------------------------|
E|--------------------------------------------------|

Parte 4 de 9
E|--------------------------------------------------|
B|--------------------------------------------------|
G|--------------------------------------------------|
D|-12-12-10-10-9-9-7-7-10-10-9-9-7-7-5-5-9-9-7-7-5-5|
A|--------------------------------------------------|
E|--------------------------------------------------|

Parte 5 de 9
E|--------------------------------------------------|
B|--------------------------------------------------|
G|--------------------------------------------------|
D|4-4-7-7-5-5-4--5-5-4-5-5-5-5-5-5-5-4-5-5-5-5-5-5-4|
A|--------------------------------------------------|
E|--------------------------------------------------|

Parte 6 de 9
E|--------------------------------------------------|
B|--------------------------------------------------|
G|--------------------------------------------------|
D|-5-5-5-5-5-5-5-7---5-5-9\-------------------------|
A|--------------------------------------------------|
E|--------------------------------------------------|

[Terceira Parte]

My end
It justifies my means
All I ever do is delay
My every attempt to evade
The end of the road and my end
It justifies my means
All I ever do is delay
My every attempt to evade
THE END OF THE ROAD!

Parte 7 de 9
E|--------------------------------------------------|
B|--------------------------------------------------|
G|--------------------------------------------------|
D|--------------------------------------------------|
A|--0-2-0-2-3-2-0-2-0-2-0-2-3-2-0-2-----------------|
E|--------------------------------------------------|

Parte 8 de 9
E|--------------------------------------------------|
B|--------------------------------------------------|
G|--------------------------------------------------|
D|--------------------------------------------------|
A|--2-3-2-3-2-3-2-3-0-2-0-2-3-2-0-2-----------------|
E|--------------------------------------------------|

Parte 9 de 9
E|--------------------------------------------------|
B|--------------------------------------------------|
G|--------------------------------------------------|
D|--------------------------------------------------|
A|--2-3-2-3-5-3-2-3-2-3-2-3-5-3-2-3-----------------|
E|--------------------------------------------------|

Guitarra 2

Parte 1 de 2
E|--------------------------------------------------|
B|--------------------------------------------------|
G|--------------------------------------------------|
D|--------------------------------------------------|
A|-3-3-3-3-3-3-5-| —0-0-0-0-0-0-2--2-2-2-2-2----------|
E|-3-3-3-3-3-3-5-| —0-0-0-0-0-0-2--2-2-2-2-2----------|

Parte 2 de 2
E|--------------------------------------------------|
B|--------------------------------------------------|
G|--------------------------------------------------|
D|--------------------------------------------------|
A|-2-| —2-2-5---2-5-----------------------------------|
E|--------------------------------------------------|

Parte 2 de 2 - Variação
E|--------------------------------------------------|
B|--------------------------------------------------|
G|--------------------------------------------------|
D|-4-4-4-7---4-7------------------------------------|
A|-2-2-2-5---2-5------------------------------------|
E|--------------------------------------------------|

[Refrão]

I am a worm before I am a man
I was a creature before I could stand
I will remember before I forget
BEFORE I FORGET THAT!

I am a worm before I am a man
I was a creature before I could stand
I will remember before I forget
BEFORE I FORGET THAT!

I am a worm before I am a man
I was a creature before I could stand
I will remember before I forget
BEFORE I FORGET THAT!

Yeah, yeah, yeah, yeah
Yeah, yeah, yeah, OH!

Parte 1 de 5
E|---------------------------------------------------|
B|---------------------------------------------------|
G|---------------------------------------------------| (7x)
D|-0h2-x-0h2-x-3p2-x-0h2-x-2h3p2---------------------|
A|-0h2-x-0h2-x-3p2-x-0h2-x-2h3p2---------------------|
E|-0h2-x-0h2-x-3p2-x-0h2-x-2h3p2---------------------|

Parte 2 de 5
E|---------------------------------------------------|
B|---------------------------------------------------|
G|---------------------------------------------------|
D|-0h2-x-0h2-x-3p2---5-5-0-0-5-5-0-0-----------------|
A|-0h2-x-0h2-x-3p2---5-5-0-0-5-5-0-0-----------------|
E|-0h2-x-0h2-x-3p2---5-5-0-0-5-5-0-0-----------------|
Composição de Chris Fehn / Corey Taylor / Craig Jones / James Root / Joey Jordison / Mick Thomson / Paul Gray / Shawn Crahan / Ty Wilson
Colaboração e revisão:
672.623 exibições
    • ½ Tom
    • Am
    • Bbm
    • Bm
    • Cm
    • C#m
    • Dm
    • Ebm
    • Em
    • Fm
    • F#m
    • Gm
    • G#m
  • Adicionar à lista

    0 comentários

    Ver todos os comentários
    00:00 / 00:00
    Outros vídeos desta música
    Repetir Qualidade Automático
    Outros vídeos desta música
    00:00 / 00:00
    Automático
    Capítulos
    • Início
    • Afinação
    • Tocando a música
    • Distorção - Amplificador
    • Power Chords Introdução - Segunda Parte
    • Ensinando Introdução
    • Ensinando Segunda Parte - Guitarra 1
    • Ensinando Segunda Parte - Guitarra 2
    • Ensinando Segunda Parte - Guitarra 3
    • Ensinando Segunda Parte (Adaptação)
    • Power Chords do Refrão
    • Tocando Refrão
    • Ensinando Refrão - Guitarra 1
    • Ensinando Refrão - Guitarra 2
    • Tocando Terceira Parte - Final
    • Ensinando Terceira Parte - Guitarra 1
    • Ensinando Terceira Parte - Guitarra 2
    • Encerramento

    Cifra Club Pro

    Aproveite o Cifra Club com benefícios exclusivos e sem anúncios
    Cifra Club Pro
    Aproveite o Cifra Club com benefícios exclusivos e sem anúncios
    OK