Cifra Club

Before I Forget

Slipknot

Tab de baixo: Principal
exibições 31.528
Tabbed-by modus operendi
jamie cushion 
5-string tuning
H=Hammer On
P=Pull Off
*=Pinched Harmonic

(riff 1)
|-----------------------|
|-----------------------|
|-----------------------|
|---2---2---2---2---2---|

(riff 2)
|----------------------|
|----------------------|
|----------------------|
|-5-5-5-0--5-5-5-0-----|

(riff 3)
|-----------------------|
|-----------------------|
|-----------------------|
|-0H2-0H2-3p2-0H2-3p2---|

(riff 4)
|----------------------------------------|
|----------------------------------------|
|----------------------------------------|
|-2-2-2-2-3--2-2-2-3--2-2-2-2-3--2-2-2-3-|

(riff 2)
|----------------------|
|----------------------|
|----------------------|
|-5-5-5-0--5-5-5-0-----|

(riff 5)
|-----------------------------------------------------|
|-----------------------------------------------------|
|-----------------------------------------------------|
|-3------------5-----------2-----------0--------------|

(riff 6 - 2x)
|-----------------------|
|-----------------------|
|-----------------------| 
|-2--0-2-5--0-2-5--0-8-7|

(riff 7)
|---------------------------|
|---------------------------|
|---------------------------|
|-8-8-8-7-8-10--5-5--7-8----|

(riff 8)
|---------------------------|
|---------------------------|
|-------------------2----5--|
|--3----5-0-----2-----------|
Composição: SlipknotColaboração e revisão:
  • vinicius ribeiro

0 comentários

    mostrar mais comentários

    Conseguiu tocar?

    28tocaram0ainda não

    Grave um vídeo tocando Before I Forget e mande pra gente!

    00:00 / 00:00
    outros vídeos desta música
    repetirqualidadeautomática
    Outro vídeos desta música
      00:00 / 00:00
      automática
      OK