Cifra Club

Circle

Slipknot

Tab de baixo: Principal
exibições 10.593
Intro:
G|---------------------------------------------------------------|
D|---------------------------------------------------------------|
A|---------------------------------------------------------------|
E|--10-8-7-5-3-5/12--------10-8-7-5-3-5/12-----------------------|

G|---------------------------------------------------------------|
D|---------------------------------------------------------------|
A|---------------------------------------------------------------|
E|--3-5-7-8-10-8/12--------10-8-7-5-3-5/12-----------------------|

Verso:
G|-----------------|
D|-----------------|
A|-----------------|
E|--3-5-2-3-(0)12--|

Refrão 3x:
G|---------------|
D|---------------|
A|--5~-0~--3~-7~-|
E|---------------|

G|-----------|
D|-----------|
A|-----7-----|
E|--3-----0--|

G|--------------|
D|--------------|
A|---3-------7--|
E|------3-------|
Composição: SlipknotColaboração e revisão:
  • jefferson

0 comentários

    mostrar mais comentários

    Conseguiu tocar?

    7tocaram0ainda não

    Grave um vídeo tocando Circle e mande pra gente!

    00:00 / 00:00
    outros vídeos desta música
    repetirqualidadeautomática
    Outro vídeos desta música
      00:00 / 00:00
      automática
      OK