Cifra Club

Confessions

Slipknot

Cifra: Principal
exibições 9.267
Tom: E
Intro 
                                                                                             
                   E||-------------------------|---------------------------|----------------------| 
                   B||-------------------------|---------------------------|----------------------| 
                   G||--------9--------8--8----|--------9--------8---------|--10------------10----| 
                   D||-----9--------9-----9----|-----9--------9--------10--|----------------10----| 
                   A||--7--------7--------7----|--7--------7--------7------|----------------7-----| 
                   E||-------------------------|---------------------------|----------------------| 

                   Riff 1 
                                                                                             
                   --9--9--x-x-x-x-x-11-11-x-x-x-x-x-9--9--|--x-x-x-x-x-9--9--9--9---------| 
                   --9--9--x-x-x-x-x-11-11-x-x-x-x-x-9--9--|--x-x-x-x-x-9--9--9--9---------| 
                   --9--9--x-x-x-x-x-11-11-x-x-x-x-x-9--9--|--x-x-x-x-x-11-11-11-11--------| 
                   --11-11-x-x-x-x-x-13-13-x-x-x-x-x-11-11-|--x-x-x-x-x-11-11-11-11--------| 
                   --11-11-x-x-x-x-x-13-13-x-x-x-x-x-11-11-|--x-x-x-x-x-9--9--9--9---------| 
                   --9--9--x-x-x-x-x-11-11-x-x-x-x-x-9--9--|--x-x-x-x-x-9--9--9--9---------| 

                   Riff2  
                                                                                   
                   --2-2-x-x-x-x-x-4-4-x-x-x-x-x-2-2-|--x-x-x-x-x-2-2-2-1--------| 
                   --2-2-x-x-x-x-x-4-4-x-x-x-x-x-2-2-|--x-x-x-x-x-2-2-2-1--------| 
                   --2-2-x-x-x-x-x-4-4-x-x-x-x-x-2-2-|--x-x-x-x-x-4-4-4-3--------| 
                   --4-4-x-x-x-x-x-6-6-x-x-x-x-x-4-4-|--x-x-x-x-x-4-4-4-3--------| 
                   --4-4-x-x-x-x-x-6-6-x-x-x-x-x-4-4-|--x-x-x-x-x-2-2-2-1--------| 
                   --2-2-x-x-x-x-x-4-4-x-x-x-x-x-2-2-|--x-x-x-x-x-2-2-2-1--------| 

                   chorus starts here 
                                                                     
                   --x-x-2--------------|--------------------------| 
                   --x-x-2--------------|--------------------------| 
                   --x-x-4--------------|--------------------------| 
                   --x-x-4--------------|--------------------------| 
                   --x-x-2--------------|--------------------------| 
                   --x-x-2--------------|--0--2--3--5--6--6--5--6--| 

                   Chorus 
                                                                           
                   -----5-5-5-5-4-5-4-5-------------|--------------------| 
                   -----5-5-5-5-4-5-4-5-------------|--------------------| 
                   -----5-5-5-5-4-5-4-5-------------|--------------------| 
                   ---------------------5-5-5-5-4-5-|--4-5---------------| 
                   --5------------------5-5-5-5-4-5-|--4-5---------------| 
                   ---------------------5-5-5-5-4-5-|--4-5---------------| 

                   solo: 
                                                                                               
                   ------------------------------------|------5--3---8-5---------------------| 
                   ----------------------------------0-|--3-3------6-----8-6-6~13--13--6--1 
                   ----------------------------------0-|3-| 
                   ------------------------------------|-------------------------------------| 
                   ----------------------------4-5-4---|-------------------------------------| 
                   --------------------0-2-3-2---------|-------------------------------------| 
                   --7----7--10--7--4------------------|-------------------------------------| 


                                                                                                    
                   -----13-13-13-13-10-9-7-5-7-3-7-7-7-----------|--------------------------------| 
                   --15--------------------------------5-3-2-----|--------------------------6-4-3-| 
                   ------------------------------------------7-5-|--------------------------------| 
                   ----------------------------------------------|--6--7--------------6-4-3-------| 
                   ----------------------------------------------|--------------6-4-3-------------| 
                   ----------------------------------------------|--------7-5-4-------------------| 


                                                                
                   --6-4-3-8-6-5-12-10-9----------------------| 
                   ----------------------15-13-12-------------| 
                   -------------------------------17-15-14-15-| 
                   -------------------------------------------| 
                   -------------------------------------------| 
                   -------------------------------------------| 


                                                            
                   ---------------13-10-8-8---------------| 
                   ---------12-10-----------9-7-9---------| 
                   --9-9-11-----------------------7-5-4-5-| 
                   ---------------------------------------| 
                   ---------------------------------------| 
                   ---------------------------------------| 


                                                                                                    
                   --11-11-11-11-11-11-11-11-11-11-11-11-11-11-11-11-13-13-13-13-13-13-13-13-13-13- 
                   --9--9--9--9--9--9--9--9--9--9--9--9--9--9--9--9--11-11-11-11-11-11-11-11-11-11- 
                   -------------------------------------------------------------------------------- 
                   -------------------------------------------------------------------------------- 
                   -------------------------------------------------------------------------------- 
                   -------------------------------------------------------------------------------- 


                                                                                                    
                   --15-15-15-15-15-15-15-15-15-15-15-15-15-15-15-15-17-17-17-17-17-17-17-17-17-17- 
                   --13-13-13-13-13-13-13-13-13-13-13-13-13-13-13-13-15-15-15-15-15-15-15-15-15-15- 
                   -------------------------------------------------------------------------------- 
                   -------------------------------------------------------------------------------- 
                   -------------------------------------------------------------------------------- 
                   -------------------------------------------------------------------------------- 


                                                                  
                   --19-15-13-12-13-10-9-9-11-15--17-13-15-13-9-| 
                   ---------------------------------------------| 
                   ---------------------------------------------| 
                   ---------------------------------------------| 
                   ---------------------------------------------| 
                   ---------------------------------------------| 


                                                        
                   --11-7-9-5-7-3-5-------------------| 
                   -----------------9-7-9-7-5-4-4-5-2-| 
                   -----------------------------------| 
                   -----------------------------------| 
                   -----------------------------------| 
                   -----------------------------------| 

                   (I'm not sure here, it's played very fast!!!!) 
                                                                                                    
                   --1-1-1-1-1-1-1-1-1-1-1-1-1-1-1-1-3-3-3-3-3-3-3-3-3-3-3-3-3-3-3-3-7-7-7-7-7-7-7- 
                   --1-1-1-1-1-1-1-1-1-1-1-1-1-1-1-1-3-3-3-3-3-3-3-3-3-3-3-3-3-3-3-3-7-7-7-7-7-7-7- 
                   -------------------------------------------------------------------------------- 
                   -------------------------------------------------------------------------------- 
                   -------------------------------------------------------------------------------- 
                   -------------------------------------------------------------------------------- 

                                                  (After the solo, play this!) 
                                                                          
                   --12-12-15-12-10-9-10----------|--5----3----7--------| 
                   -------------------------------|--5----3----8--------| 
                   -------------------------------|--6----4----9--------| 
                   -------------------------------|--7----5----9--------| 
                   -------------------------------|--7----5----7--------| 
                   -------------------------------|--5----4----7--------| 

                   Riff 3 End of the song!!!!!!! 
                                                 
                   --3-4-4--4--1--2--1--2--7--|| 
                   --3-4-4--4--1--2--1--2--8--|| 
                   --3-4-4--4--1--2--1--2--9--|| 
                   ------------------------9--|| 
                   ------------------------7--|| 
                   ------------------------7--||
Acordes para:
    Colaboração e revisão:
    • Alan Barbosa

    0 comentários

      mostrar mais comentários

      Conseguiu tocar?

      0tocaram0ainda não

      Grave um vídeo tocando Confessions e mande pra gente!

      00:00 / 00:00
      outros vídeos desta música
      repetirqualidadeautomática
      Outro vídeos desta música
        00:00 / 00:00
        automática
        OK