Cifra Club

Danger, Keep Away

Slipknot

Cifra: Principal
exibições 10.369
Tom: G
We too feel alone

That place in my mind
Is that space that you call mine
That place in my mind
Is that space that you call mine

Where have I been all this time?
Lost enslaved fatal decline
I've been waiting for this to unfold (Good)
The pieces are only as good as the whole

Severed myself from my whole life
Cut out the only thing that was right
What If I never saw you again
I'd die right next to you in the end

That place in my mind
Is that space that you call mine
That place in my mind
Is that space that you call mine

I wouldn't let you walk away
Without hearing what I have to say
Without hearing what I have to say
Without hearing what I have to say

A very short, mellow song. Done with Piano and Corey's voice.


E|-------------------------------------------------||
B|-------------------------------------------------||
G|-------------------------------------------------||
D|-------------------------------------------------||
A|---10-7-5-5-7-10-10-7-5-5-7-------7----------7---||
E|------------------------------2-------2-2--------|| 

E|-------------------------------------------------||
B|-------------------------------------------------||
G|-------------------------------------------------||
D|-------------------------------------------------||
A|---10-7-5-5-7-10-10-7-5-5-7-------7----------10--||
E|------------------------------2-------2-2--------||

Acordes para:
    Composição: indisponívelColaboração e revisão:
    • Israel Bessa

    0 comentários

      mostrar mais comentários

      Conseguiu tocar?

      4tocaram0ainda não

      Grave um vídeo tocando Danger, Keep Away e mande pra gente!

      00:00 / 00:00
      outros vídeos desta música
      repetirqualidadeautomática
      Outro vídeos desta música
        00:00 / 00:00
        automática
        OK